Acordes de Guitarra » A »Alejandro Filio » Mi todo (Tab)

Mi todo
Alejandro Filio

Letras, Notas, Punteos, Tablaturas y Acordes de Guitarra (Tabs & Chords)

  • Letra y Acordes
    e------------0----------------------------------I
    B-----0-------------0h2----0--------------------I
    G---------2--------------------2----------------I
    D---2-----------2---2-----------2---------------I
    A-0------------------------0--------------------I
    E-----------------------------------------------I
    
    Asus4                                       E
    Porque el todo se aplaza desde ayer para luego
                      F#m                  C#m
    Porque rompo las casa y otra vez desespero
                     D
    Antes de que amanezca
                          intro:Asus4  A   Asus4 A
    Todo menos tu cuerpo
    
    Porque nada es mi todo
                      E
    Sino hay nada contigo
                           F#m                   C#m
    
  • Letra y Acordes
    e------------0----------------------------------I
    B-----0-------------0h2----0--------------------I
    G---------2--------------------2----------------I
    D---2-----------2---2-----------2---------------I
    A-0------------------------0--------------------I
    E-----------------------------------------------I
    
    Asus4                                       E
    Porque el todo c aplaza desde ayer para luego
                      F#m                  G#m 
    Porque rompo las casa y otra vez desespero
                         D
    Antes de que amanezca
                          intro:Asus4  A   Asus4 A
    Todo menos tu cuerpo
    
    Porque nada es mi todo 
                      E
    Sino hay nada contigo
                           F#m                   G#m
    
  • Tablatura
         A
    e|-------------------------0----------------------|
    B|-------------2h0--0---------0-----0h2h0---------|
    G|----------2----------2---------2----------2-----|
    D|-------2----------------------------------------|
    A|---0--------------------------------------------|
    E|------------------------------------------------|
    
    *Aqui empieza la cancion*
    A)   A                                          E
    e|--------------------------------------------------------------
    B|-------------2h0--0---------------2h0--0----------------0-----
    G|----------2----------2---------2-----------2---------1------1-
    D|-------2--------------------2---------------------2-----------
    A|---0--------------------0---------------------2---------------
    E|--------------------------------------------------------------
                Porque el todo se aplaza desde ayer para luego
     F#m                  C#sus2              G#m
    ------------------2--------------------4--------------------4---
    ------------2------------------4----------------------4---------
    
  • +
    ¡Colabora con nosotros!
    Envíanos tu versión de esta canción

Letra de Mi todo
Porque el todo c aplaza desde ayer para luego
Porque rompo las casa y otra vez desespero
Antes de que amanezca
Todo menos tu cuerpo
Porque nada es mi todo
Sino hay nada contigo
Porque el tiempo es recodo y otro modo el olvido
Q no entiendo en tus ojos
Y tu voz adivino
Q me espera mañana
Si despierto encendido
Con el sol en la cara y mis ganas contigo

A llamar la ventana
Para ahogar el sentido
y que venga la calma
Para darme el alivio
Porque abecés divago en el olor de tu ropa
Porque viajo despacio de tu cama tus cosas
Como buscando el paso
Que me vuelva tu boca
Todo tiene su luz buscándote
Y al centro quedas tu luna quemante intro
Porque estas en mi frente
Confundiendo las horas
Porque vuelve silente de la luz a la sombra
Vas componiendo todo
Cuando un verso te nombra
Cuando un verso te nombra

Videos de Mi todo
[ver más videos]

[ver todas las canciones]


© LaCuerda.net · Aviso Legal · Privacidad