Acordes de Guitarra » A »Alejandro Filio » Dicen (Tab)

Dicen
Alejandro Filio

Letras, Acordes y Tabs para Guitarra, Bajo y Ukulele

  • G           Dinv     Em
    Dicen que ando por ahi
    D                C (bajo en B) Am D Repite 
    retando al porvenir sin derecho
    por cada sol un corazon
    me robo y la ilusion, compro y vendo.
    
    Am         B7       Em
    Dicen que loco me volvi
    D                      G
    que ya no queda mas de mi
    C         (bajo en B) Am 
    dicen las lenguas creativas
    A-(bajo G) Dinv  G  (Intro)
    cosas divertidas.
    
    Dicen que rompo la hermandad
    que vivo a la mitad este canto 
    juran que el sueño taicione
    por lo que ayer soñe entre tantos.
    
  • G, F#m/D9, G/C x 2(Aqui LA cuerda B se toca libre) 
    G           F#m     Em
    Dicen que ando por ahi
    D                C (bajo en B) Am D  
    retando al porvenir sin derecho
    G           F#m      Em
    por cada sol un corazon
    D                C(bajo en LA cuerda B) Am D
    me robo y la ilusion, compro y vendo.
    
    Am         B7       Em
    Dicen que loco me volvi
    D                      G
    que ya no queda mas de mi
    C         (bajo en LA cuerda B) Am 
    dicen las lenguas creativas
    Am (bajo en LA cuerda G) F#m  G  
    cosas divertidas.
    
    G, F#m/D9, G/C x 2
    
  •      G    D/F# C9   D/F#  G    D/F# C7majD/F#  G    D/F# C7majD/F#
     E |--------------------------------------------------------------|
     B |-3--3-3--3-3--3-3--3--0--0-0--0-0--0-0--0--0--0-0--0-0--0-0--0|
     G |---0----2----0----2-----0----2----0----2-----0----2----0----2-|
     D |--0----0----2----0-----0----0----2----0-----0----0----2----0--|
     A |-----------3--------------------3--------------------3--------|
     E |-3----2---------2-----3----2---------2-----3----2---------2---|
    
    Primeros dos versos de cada estrofa
    
         G   D/F#Em  Em/D C  G/B Am  D7
     E |----------------------------02-3-|
     B |-----------0---0-------3---1--0-0|
     G |---0---2--0-0-0-0--0--0-0-2------|
     D |--0-0-0-02---0----2-2--------0---|
     A |-----------------3---2---0-------|
     E |-3---2---------------------------|
    
    Segundos dos versos de cada estrofa
    
    
  • +
    ¡Colabora con nosotros!
    Envíanos tu versión de esta canción

Letra de Dicen
Dicen que ando por ahi
retando al porvenir sin derecho
por cada sol un corazon
me robo y la ilusion, compro y vendo.
Dicen que loco me volvi
que ya no queda mas de mi
dicen las lenguas creativas
cosas divertidas.
Dicen que rompo la hermandad
que vivo a la mitad este canto
juran que el sueño taicione
por lo que ayer soñe entre tantos.
Dicen que soy de lo mejor
cuando les gana la pasion.
Dicen y dicen
y algunos hasta me maldicen.
Dicen que yo me la robe
no sabe que ella fue siempre mia
otros incluso en su obsecion
subastan la inversion de mi hombria.
Resan por que en mi distraccion
pierda la musa en un avion.
Dicen que soy un meloso
y hasta peligroso.
Dicen que un dia pagare
con sangre por lo que no me callo
dicen que el cambio no sera
que falta por robar lo soñado.
Dicen que ya me cansare
que tiene precio este querer.
Dicen y dicen
y algunos hasta me maldicen.




[Dicen chords][Dicen cifra]
© LaCuerda.net · aviso legal · privacidad · es · en · pt · contacto