Acordes de Guitarra » A »Alea » Cuéntame (Tab)

Cuéntame
Alea

Letras, Acordes y Tabs para Guitarra, Bajo y Ukulele

  • Dm Dm C Dm Dm
    
    C C F C C
    
    
    La solista entre medio va tocando estos solos
    
    1r solo  (entre Dm Dm C Dm Dm)
    |----------------5------------------------------------|
    |------------------8--6------6-5-----5----------------|
    |-----5--7--------------7--------7--------------------|
    |--7-------------------------------7------------------|
    |-----------------------------------------------------|
    |-----------------------------------------------------|
    
    2n solo  (entre C C F C C)
    |--------------5------------5-----------8-------------|
    |----------------8--6---------8--6--5-----------------|
    |-----5--7-------------7------------------------------|
    |--7--------------------------------------------------|
    
  • +
    ¡Colabora con nosotros!
    Envíanos tu versión de esta canción

Letra de Cuéntame
La solista entre medio va tocando estos solos
ESTROFA 1:
Cuéntame
a que huele tu risa
a que saben tus caricias
Cuéntame
a que suena tu silencio
de que color son tus besos
Cuéntame, cuéntame
Cuéntame, cuéntame....
Son tantas cosas las que no se de ti
me encantaría poderlas descubrir.
ESTRIBILLO:
Déjate llevar
que quiero compartir
mis ganas de vivir
Déjate llevar
que quiero conquistar
la luz, la luz de tu mirada
ESTROFA 2:
Cuéntame
quien te abraza en tus sueños
quien te arropa este invierno
Cuéntame
si la soledad te da miedo
si suspiras como el viento
Cuéntame, cuéntame
Cuéntame, cuéntame....
Son tantas cosas las que no se de ti
me encantaría poderlas descubrir.
ESTRIBILLO:
Déjate llevar
que quiero compartir
mis ganas de vivir
Déjate llevar
que quiero conquistar
la luz, la luz de tu mirada
Se la dedico a mi novia Leonor que la quiero mucho y además
es la cantante, y a todos los demás compañeros de grupo.

Video de Cuéntame
[]




[Cuéntame chords][Cuéntame cifra]
© LaCuerda.net · aviso legal · privacidad · es · en · pt · contacto