Acordes de Guitarra » A »Alcides » Violeta (Tab)

Violeta
Alcides

Letras, Acordes y Tabs para Guitarra, Bajo y Ukulele

  • E||--8-8-8-8-11--8--10------|--------10-----------8---|
    B||---------------------11--|--11-11--------11-11-----|
    G||-------------------------|-------------------------|
    D||-------------------------|-------------------------|
    A||-------------------------|-------------------------|
    E||-------------------------|-------------------------|
    
    --8-8-8-8-11--8--10------|--10------------------||
    ---------------------11--|------11------11--13--||
    -------------------------|---------12-----------||
    -------------------------|----------------------||
    -------------------------|----------------------||
    -------------------------|----------------------||
    
                    A#
    Mira como se menea,
                       Cm
    como le gusta caminar,
                         A#
    suavecito como la marea,
    
  • E||-------------------------------|-------------------------|
    B||--11b13-11b13-11--9b11-9b11-13-|-8b9-8b9-11--------------|
    G||-------------------------------|-------------7b8-7b8-10---|
    D||-------------------------------|-------------------------|
    A||-------------------------------|-------------------------|
    E||-------------------------------|-------------------------|
    
    ------------------|------------------|
    ------------------|------------------|
    --5-5-5-5-8-5-7---|-----7--------5---|
    ----------------8-|-8-8---8--8-8---5-|
    ------------------|------------------|
    ------------------|------------------|
    
    ------------------|------------------|
    ------------------|------------------|
    --5-5-5-5-8-5-7---|---7---5----------|
    ----------------8-|-8---8------------|
    ------------------|------------------|
    ------------------|------------------|
    
  • +
    ¡Colabora con nosotros!
    Envíanos tu versión de esta canción

Letra de Violeta
Mira como se menea,
como le gusta caminar,
suavecito como la marea,
su mirada te puede matar.
Mira como va gozando,
como suena su cascabel,
suavecito me esta envenenando,
y se pierde al anochecer.
Estribillo (x2):
-No la dejes ir, no la dejes ir.
-¿Por qué? -Te lo digo yo.
-¿Quién es? -Violeta,
y se va sin decir adiós.
(En todos los segundos estribillos dice
"y se lleva mi corazón" en lugar del
último verso)
Baila como un terremoto,
su cintura me hace temblar,
tiene un feeling que me vuelve loco,
yo no me puedo controlar.
Mira como sube y baja,
como si se fuera a romper,
me corre un frío por la espalda,
yo no se lo que voy a hacer.
Estribillo (x2):
-No la dejes ir, no la dejes ir.
-¿Por qué? -Te lo digo yo.
-¿Quién es? -Violeta,
y se va sin decir adiós.
Baila, baila como un terremoto.
Baila, baila como un terremoto.
Tiene un feeling que me vuelve loco.
Tiene un feeling que me vuelve loco.
Estribillo (x2):
-No la dejes ir, no la dejes ir.
-¿Por qué? -Te lo digo yo.
-¿Quién es? -Violeta,
y se va sin decir adiós.

Video de Violeta
[]




[Violeta chords][Violeta cifra]
© LaCuerda.net · aviso legal · privacidad · es · en · pt · contacto