Acordes de Guitarra » A »Agustín Magaldi » El penado catorce (Tab)

El penado catorce
Agustín Magaldi

Letras, Acordes y Tabs para Guitarra, Bajo y Ukulele

  • E-----------1--4--1--------------1--4--1--------------0--3--0-----------------
    B--2--1--2--------------1--0--1-----------------------------------------------
    G----------------------------------------------3--2--3---------1--0--1--3--5--
    D-----------------------------------------------------------------------------
    A-----------------------------------------------------------------------------
    E-----------------------------------------------------------------------------
    
    E-----------1--4--1-------------1--4--1-----------0--3--0----------------
    B--2--1--2--------------1--0--1------------------------------------------
    G------------------------------------------3--2--3-----------------------
    D------------------------------------------------------------------3-----
    A-----------------------------------------------------------------3------
    E-------------------------------------------------------------1--4-------
    
    Fm
    En una celda oscura
    del presidio lejano
    el penado catorce
                A#m
    su vida termin󅅅…
    
  • +
    ¡Colabora con nosotros!
    Envíanos tu versión de esta canción

Letra de El penado catorce
En una celda oscura
del presidio lejano
el penado catorce
su vida termin󅅅…
dicen los compañeros
que el pobre presidiario
murió haciendo señas
y nadie lo entendió.
En una noche fría
que el preso deliraba
su mueca tan extraña
dio mucho que pensar……….
y sin embargo, nadie,
de tantos carceleros,
se acercó a la celda
del que no pudo hablar.
Dejó una carta escrita,
con frases tan dolientes,
que un viejo presidiario
al leerla conmovió
al mismo fratricida
con alma tenebrosa
que en toda su existencia
amor nunca sintió.
Repite Introducción
En la carta decía:
"Ruego al juez de turno,
que traigan a mi madre,
le pido por favor,….
pues antes de morirme
yo quiero darle un beso
en la arrugada frente
de mi primer amor".
En la celda sombría
del lejano presidio
su vida miserable
el penado entregó….
Y el último recuerdo,
fue el nombre de la madre,
y su acento tan triste
el viento lo llevó...
Dejó una carta escrita,
con frases tan dolientes,
que un viejo presidiario
al leerla conmovió
al mismo fratricida
con alma tenebrosa
que en toda su existencia
amor nunca sintió.
En la carta decía:
"Ruego al juez de turno,
que traigan a mi madre,
le pido por favor,
pues antes de morirme
yo quiero darle un beso
en la arrugada frente
de mi primer amor".
Termina en Fm.




[El penado catorce chords][El penado catorce cifra]
© LaCuerda.net · aviso legal · privacidad · es · en · pt · contacto