Acordes de Guitarra » A »Acapulco Tropical » La del vestido rojo (Tab)

La del vestido rojo
Acapulco Tropical

Letras, Acordes y Tabs para Guitarra, Bajo y Ukulele

  • Intro: REm  SOL DO  LA7  REm  DO
           REm  SOL  DO  LA7  FA  SOL  DO
    
    REm
    ESTAS INSOPORTABLE
    SOL              DO
    CON TU VESTIDO ROJO
    LA7               REm
    Y CON TU CARA DE ANGEL
    SOL               DO
    TE TENGO PUESTO EL OJO
                REm
    Y CON TU CAMINAO
    SOL                     DO
    ME ESTA ABSORVIENDO EL COCO
    LA7             REm
    Y CON TU PELO SUELTO
    SOL             DO
    ME VAS A VOLVER LOCO
    
    
  • A)
    E|-------------|------------|--------------|--------------|
    A|-------------|------------|--------------|--------------|
    D|-------------|------------|--------------|--------------|
    G|-------------|-2-----2-2--|-0-2---2---2--|-0-2---2---2--|
    B|---3-1-0-1-0-|---0-1------|-----1----1---|-----1----1---|
    E|-------------|------------|--------------|--------------|
    
    B)
    E|-------------|------------|------------|-----------|----------|----|
    A|-------------|------------|------------|-----------|----------|----|
    D|-------------|------------|------------|-----------|----------|----|
    G|-------------|-2-----2-2--|-2------2-2-|-0-2-2-2-2-|----------|2-2-|
    B|---3-1-0-1-0-|---0-1------|---0-1------|-----------|0-0-0-0-1-|----|
    E|-------------|------------|------------|-----------|----------|----|
    
     c)  ESTAS INSOPORTABLE           CON   TU    VESTIDO   ROJO
    E|------------------------------|----------------------------|
    A|------------------------------|----------------------------|
    D|------------------------------|----------------------------|
    
  • +
    ¡Colabora con nosotros!
    Envíanos tu versión de esta canción

Letra de La del vestido rojo
ESTAS INSOPORTABLE
CON TU VESTIDO ROJO
Y CON TU CARA DE ANGEL
TE TENGO PUESTO EL OJO
Y CON TU CAMINAO
ME ESTA ABSORVIENDO EL COCO
Y CON TU PELO SUELTO
ME VAS A VOLVER LOCO
MIRA QUE SABROSO CAMINA
ASI DE MEDIO LAO ASI DE MEDIO LAO
MIRA QUE SABROSO CAMINA
ASI ASI ASI DE MEDIO LAO
CHICA VEN PA CA BAILA EL CHA CHA CHA
SABROSO TREMENDO
CHICA VEN PA CA BAILA EL CHA CHA CHA
ASI ASI ASI DE MEDIO LAO
INSTRUMENTAL
REPETIR TODO
N:Junto con el Tab de José Alvarado ya está toda la canción, si no coincide
con la tonalidad, cambiar los acordes.




[La del vestido rojo chords][La del vestido rojo cifra]
© LaCuerda.net · aviso legal · privacidad · es · en · pt · contacto