Acordes de Guitarra » A »Los Abominables » Berlín (Tab)

Berlín
Los Abominables

Letras, Acordes y Tabs para Guitarra, Bajo y Ukulele

  •  e |-------------------7-9-------------7----------------7---|
     B |-7-10-7-10-7-10-10---------7-10-10---7------7-10-10---7-|
     G |--------------------------------------------------------|
     D |--------------------------------------------------------|
    
     e |-------------------7-9-----9-10-9-7---------------7-----|
     B |-7-10-7-10-7-10-10------------------10-7-7-----10---7---|
     G |--------------------------------------------------------|
     D |--------------------------------------------------------|
    
    
    
    *Estas son las pisadas para el intro y el coro
    
                D                 A                       F#m
    e|------------------------------------------------------------------------
    B|------------------------------------------------------------------------
    G|---7-7-7-7-7-7-7-7------------------------------------------------------
    D|---5-5-5-5-5-5-5-5---7-7-7-7-7-7-7-7----4-4-4-4-4-4-4-4--4-4-4-4-4-4-4-4
    A|---5-5-5-5-5-5-5-5---5-5-5-5-5-5-5-5----4-4-4-4-4-4-4-4--4-4-4-4-4-4-4-4
    
  • +
    ¡Colabora con nosotros!
    Envíanos tu versión de esta canción

Letra de Berlín
*Estas son las pisadas para el intro y el coro
*Estas son para los versos, escuchen y acomoden los tiempos
P.M P.M. P.M. P.M. P.M. P.M. P.M. P.M.
*Este es el RIFF que se oye en los versos
Con tu cuerpo electrónico
me contagias de tu radiación.
Contorsiono (RIFF)
al oír tu voz.
Como ecos de una Grace Jones,
cuando bailas un oscuro pop
me conviertes una vez más.
Tú haces que me sienta en un club
del viejo Berlín, del nuevo Japón…
Tú haces la versión de neón
de mi espasmódico corazón.
Te conviertes en terrible error
e hipnotizas mi inmovilidad.
La máquina de ritmos se convierte en un sutil burdel [RIFF]
para amar...
Nuevo orden era cabaret
motorizas mi imaginacion
en una estampa futurista
de satisfacción.
Tú haces que me sienta en un club
del viejo Berlín,del nuevo Japón…
Tú haces la versión de neón
de mi espasmódico corazón.
Tú haces que me sienta en un club
del viejo Berlín,del nuevo Japón…
Tú haces la versión de neón
de mi espasmódico corazón.

Video de Berlín
[]




[Berlín chords][Berlín cifra]
© LaCuerda.net · aviso legal · privacidad · es · en · pt · contacto