Tablatura Abel Pintos: Luna llena
Nelson Araya
3 de abel pintos [2001]
INTRO:

e|-5---5-3-3-|-5---5-3-3-|-5-------------|
b|---5-------|---5-------|---5-5-3-3-5---|
g|-----------|-----------|-------------5-|
D|-----------|-----------|---------------|
A|-----------|-----------|---------------|
E|-----------|-----------|---------------|


e|-8----8-7-7-|-8----8-7-7-|-8----------------|
b|---10-------|---10-------|---10-10-8-8-10---|
g|------------|------------|----------------9-|
D|------------|------------|------------------|
A|------------|------------|------------------|
E|------------|------------|------------------|


Am G Am G Am G Am Era la luna llena que asomaba su carita en la Cordillera.
Am G Am G Am G Am Eran los mil colores que tenia tu carita en la noche aquella.
Dm Em Era tu color lo que sentia,
Dm Em o era que talvez ya no seria,
E quien soy. e|-5---5-3-3-|-5---5-3-3-|-5-------------| b|---5-------|---5-------|---5-5-3-3-5---| g|-----------|-----------|-------------5-| D|-----------|-----------|---------------| A|-----------|-----------|---------------| E|-----------|-----------|---------------| e|-8----8-7-7-|-8----8-7-7-|-8----------------| b|---10-------|---10-------|---10-10-8-8-10---| g|------------|------------|----------------9-| D|------------|------------|------------------| A|------------|------------|------------------| E|------------|------------|------------------|
Am G Am G Am G Am Era la luna llena que asomaba su carita en la Cordillera.[ay si]
Am G Am G Am G Am Eran los mil colores que tenia tu carita en la noche aquella.
Dm Em Era tu color lo que sentia,
Dm Em o era que talvez ya no seria,
E quien soy.
Am-G Larairaira,larairaira, larairaira,larairaira, larairaira,larairaira, larairaira,larairairaaa. Era la luna llena que asomaba su carita en la Cordillera. Eran los mil colores que tenia tu carita en la noche aquella. Era la luna llena que asomaba su carita en la Cordillera.[ay si] Eran los mil colores que tenia tu carita en la noche aquella. Era tu color lo que sentia, o era que talvez ya no seria, quien soy...
© LaCuerda.net · aviso legal · privacidad · es · en · pt · contacto