Acordes de Guitarra » 0-9 »La 25 » Chica del 2000 (Tab)

Chica del 2000
La 25

  • Letra y Acordes
    FA#m-RE-MI
    FA#m-RE-MI
    FA#m-RE-DO#
    
    
    FA#m        RE-MI-FA#m-RE-MI
        Como vivir, era cibernética
    FA#m        RE-MI-FA#m-RE-MI
        como sentir, música electromagnética
    FA#m        RE-MI-FA#m-RE-MI
        chica del 2000, solo cuentas con algo de azar
         MI                 FA#m
        y yo, buscando lo colateral
              RE       MI                     FA#m
        para saber, si aun es tarde o es que existe
    
    RE-MI-FA#m
    RE-MI-FA#m
    
    cambian cybers por esquinas
    
  • Tablatura
    MODIFICACIÓN A LA TRANSCRIPCION DE:
    Francisco (fran082@hotmail.com)
    **********************************************************************
    
    Intro:
    e|------------------------------------14-----------------|
    B|------------12-------------------------14-12-----------|
    G|--11/13-14----14-13-14/11-11--14------------14-13------|
    D|-------------------------------------------------------|
    A|-------------------------------------------------------|
    E|-------------------------------------------------------|
    
    
    e|--------------------------------------------------------|
    B|--12--12/14---10/12---------10/11/10--------------------|
    G|----14--------------14-13-------------------------------|
    D|--------------------------------------------------------|
    A|--------------------------------------------------------|
    E|--------------------------------------------------------|
    
    
    
    [Punteo] 2:09
    e|--------------------------------------|
    B|----------------4/5-------------------|
    G|------6-4---4-4-----7-6-4---4-4-6
  • Tablatura
    Bueno aca les mando la trancripcion de este tema q esta muy
    bueno.. al intro franco lo habia hecho bastante bien pero le
    correji un par de errores.. dsp lo q le faltaba era el punteo
    intermedio que lo puse tmb.. espero que tengan suerte y culaquier
    cosa mandenme un email a fran082@hotmail.com
    
    Intro:
    e|----------------------------------14-12----------------|
    B|------------12-------------------------14-12-----------|
    G|--11s13-14----14-13-14s11---14--------------14-13------|
    D|-------------------------------------------------------|
    A|-------------------------------------------------------|
    E|-------------------------------------------------------|
    
    
    e|-------------------------------------------------------|
    B|--12--12s14---10s12-10-9---10s11s10--------------------|
    G|----14-------------------------------------------------|
    D|-------------------------------------------------------|
    A|-------------------------------------------------------|
    E|---------------------------------------------
  • +
    ¡Colabora con nosotros!
    Envíanos tu versión de esta canción

Letra de Chica del 2000
Como vivir, era cibernética
como sentir, música electromagnética
chica del 2000, solo cuentas con algo de azar
y yo, buscando lo colateral
para saber, si aun es tarde o es que existe
cambian cybers por esquinas
juegos múltiples en red
niños que patean el arco
oprimiendo un botón digital
y vas, buscando como procrear
vas sin saber que en las venas roja sangre hay
será el juego final, el de la hoguera que te espera
y yo, buscando lo colateral
para saber, que aun es tarde pero existe
una salida más
será pillo el que resiste
ReM-MiM-fa#m
chica del 2000..
ReM-MiM-fa#m
chica del 2000..
MiM-fa#m
chica del 2000..
solo(base):
sim-MiM-fa#m
ReM-MiM-fa#m
como samples de apariencia
espejos retro que me miran mal
cuantas mas horas extensas
la hoguera será el juego final
y vas, buscando como procrear
vas sin saber que en las venas roja sangre hay
será el juego final, el de la hoguera que te espera
y yo, buscando lo colateral
para saber, que aun es tarde pero existe
una salida más
será pillo el que resiste
chica del 2000..
chica del 2000...
saludos para toda la gente....
primer temita q subimo con el ruso
espero q los acordes hallan sido los acertados...
aguante la 25.........
el pelado y el ruso...



© LaCuerda.net · aviso legal · privacidad · contacto