Tablatura para Guitarra de Vox Dei: Profecías
Conexión · Inscripción
Letras y Acordes
Pantalla Completa
Imprimir
Versión Texto
Añadir Favorito
Otras Versiones

Mostrar Diagramas
Desfile Automático
Manipular Acordes
Formato del Texto

Vox Dei
Profecías(TAB)
calidad:
vdei0032
AUTOR: ?
ALBUM: ?
Enviado por Sebastián
(parte I)

Intro y base: ver tab

De sol a sol

labrando tierra tendrás tu pan.

Todos los ríos van al mar

pero este nunca se llenará.

Todos los ríos

siempre volverán a donde salieron

para comenzar a correr de nuevo.

Lo que siempre fue, lo mismo será,

lo que siempre hicieron, repetirán.

Inter: D-Em   C-Bm   Em-C   Am-D   D-D

No olvidar.

Lo que ves ya se ha visto, ya.

Tal vez un día lo sabrás;

todo tiene un tiempo bajo el sol,

porque habrá siempre:

tiempo de plantar y de cosechar,

tiempo de hablar, también de callar.

Hay tiempo para guerra y tiempo de paz,

tiempo para el tiempo y un rato más.

Inter: D-Em   C-Bm   Em-C   Am-D

Solo: ver tab

Intro x 6

Inter: ver tab
 Intro y base:

  *---5-------5-----5--*---7-------7-----7--*---8-------8-----8--*---7---------8------*
  *-----5-------5------*-----5-------5------*-----5-------5------*-----5---------5----*
G1*-5-----5-------5----*-5-----5-------5----*-5-----5-------5----*-5-----5---5-----5--*
  *--------------------*--------------------*--------------------*--------------------*
  *--------------------*--------------------*--------------------*--------------------*
  *--------------------*--------------------*--------------------*--------------------*
  *                                                                                   *
  *--------------------*--------------------*--------------------*--------------------*
  *--------------------*--------------------*--------------------*--------------------*
G2*--------------------*--------------------*--------------------*--------------------*
  *--------------------*--------------------*--------------------*--------------------*
  *-0------------------*--------------------*--------------------*-0---------2--------*
  *--------------------*-3------------------*-2------------------*--------------------*
  *                                                                                   *
  *--------------------*--------------------*--------------------*--------------------*
  *--------------------*--------------------*--------------------*--------------------*
Cs*--------------------*--------------------*--------------------*--------------------*
  *-7------------------*-5------------------*-4------------------*-3---------2--------*
  *--------------------*--------------------*--------------------*--------------------*
  *--------------------*--------------------*--------------------*--------------------*

Solo cuerdas:

*-10-5-10-8-7----*---------------7----7-8-7-8-*-10-5-10-8-7----*
*-------------10-*-8-7-8-10-8-10---10---------*-------------10-*
*----------------*----------------------------*----------------*
*----------------*----------------------------*----------------*
*----------------*----------------------------*----------------*
*----------------*----------------------------*----------------*

                                                     Em F# Bm Em F# Bm Em F# Bm  A G
*---------------7---7-8-7-8-*-10-5-10-8-7----*-----7-------7--------7--------7-------*
*-8---8-10-8-10---10--------*-------------10-*-8-7------7--------7--------7-----10-8-*
*---9-----------------------*----------------*-------9--------9---------9------------*
*---------------------------*----------------*---------------------------------------*
*---------------------------*----------------*---------------------------------------*
*---------------------------*----------------*---------------------------------------*

Inter:
*-----------*-----------*-----------*------------------*
*-----------*-----------*-----------*------------------*
*-----------*-----------*-----------*------------------*
*-----------*-----------*-0-0-0-0-0-*-/3-3-3-3-2-2-2-2-*
*-0-0-0-0-0-*-3-3-3-3-3-*-----------*------------------*
*-----------*-----------*-----------*------------------*

*-----------*-----------*-----------*-----------------*
*-----------*-----------*-----------*-----------------*
*-----------*-----------*-----------*-----------------*
*-----------*-----------*-----------*-----------------*
*-----------*-----------*-----------*-----------------*
*-5-5-5-5-5-*-3-3-3-3-3-*-2-2-2-2-2-*-1-1-1-1-0-0-0-0-*

*-----------*-----------*-----------*------------------*
*-----------*-----------*-----------*------------------*
*-----------*-----------*-----------*------------------* x7
*-----------*-----------*-0-0-0-0-0-*-/3-3-3-3-2-2-2-2-*
*-0-0-0-0-0-*-3-3-3-3-3-*-----------*------------------*
*-----------*-----------*-----------*------------------*

(parte II)

Intro: A7

 A       F#m
Buenas y malas son
Bm7       E7sus4  E7
cosas que vivo    hoy.
 A         F#m
No es esta tierra, no,
Bm7     E7sus4    E7
sueño color     azul.
  A
¿No es, quizás
       Bm
que no sé mirar?
  G       E
¿Cuanto, cuanto
 A          F#m
hay a mi alrededor?
Bm7            E7                A        F#m
Más de lo que mis ojos pueden mirar, y llegar a ver.
Bm7         E7
Estas son razones que dicen que:
 A           Dm
solo sé, que sé querer,
       A             Dm
y que tengo dios, y tengo fe,
       A           G       A7
y que doy amor, y puedo ser.

Solo: A7

 A          F#m
Sé que en algún lugar
Bm7          E7sus4   E7
alguien me espera    hoy.
 A           F#m
Sé que ahora tengo yo
Bm7       E7sus4      E7
alguien a quien   buscar.
 A
¿No es, quizás
          Bm
que ahora sé mirar?
  G       E
¿Cuanto, cuanto
 A         F#m
hay a mi alrededor?
Bm7            E7                A        F#m
Más de lo que mis ojos pueden mirar, y llegar a ver.
Bm7         E7
Estas son razones que dicen que:
 A           Dm
solo sé, que sé querer,
       A             Dm
y que tengo dios, y tengo fe,
       A           G       A7
y que doy amor, y puedo ser.

Solo: A7
Envía el tono de "Profecías" a tu celular/móvil
Este fichero es trabajo propio de su transcriptor y representa su interpretación personal de la canción. El material contenido en esta página es
para exclusivo uso privado, por lo que se prohibe su reproducción o retransmisión, así como su uso para fines comerciales.
© LaCuerda.net · Aviso Legal · Privacidad