Letra y Acordes de Vox Dei: Loco hacela callar
Conexión · Inscripción
Letras y Acordes
Pantalla Completa
Imprimir
Versión Texto
Añadir Favorito
Otras Versiones

Mostrar Diagramas
Desfile Automático
Manipular Acordes
Formato del Texto

Vox Dei
Loco hacela callar
calidad:
vdei0271
AUTOR: Ricardo soule
ALBUM: Es una nube no hay duda (1973)
Enviado por roge
  E5               E5
|-----------|----|-------------------------------------------|----|
|-----------|----|-------------/5------------------------5---|----|
|-----------|----|-------0-2-0-/4---2/4-0--2/4-0--4-0----4---|----|
|-7/9--9-9--|----|-0^2-2------------------------------2--2---|-X2-|
|-5/7--7-7--|-X4-|-------------------------------------------|----|
|-0(0)-0-0--|----|-------------------------------------------|----|

  Bb5 E5           D5  C5  E5
|----------|----|---------------|
|-----5-5--|----|----------5----|
|--3--4-4--|----|--7---5---4----|
|--3--2----|-X3-|--7---5---2----|
|----------|----|--5---3---2----|
|----------|----|---------------|


E5
 no penses que lo que digo
es cierto si no lo crees
porque si no estas conmigo
Bb5             E5
  que podemos hacer
Bb5             E5
  no pensamos igual
D5  C5               E5
no, de nada sirve pelear

E5
 ten mucho cuidado loco
no te dejes confundir
mil mentiras seran poco 
Bb5                  E5
  las que diran por ahi
Bb5              E5
  y habra muchas mas
D5  C5                 E5-D5-C5 E5-D5-C5 E5-D5-C5
no, no te dejes confundir

solo en pentatonica de Em
sobre progresion E5 Bb5 E5 Bb5 E5 D5 C5 E5

no vuelvas ni un paso atras
pero corrige algun error
camina placido en el ruido
malas palabras seran
las del sabio creido
no, de nada te serviran

tene cuidado con tu lengua 
no te vayas a confiar
porque siempre esta contenta 
si hay de quien hablar
loco hacela callar
no, te llenara de maldad

cualquier cosa escriban: RoGe_@argentina.com
Envía el tono de "Loco hacela callar" a tu celular/móvil
Este fichero es trabajo propio de su transcriptor y representa su interpretación personal de la canción. El material contenido en esta página es
para exclusivo uso privado, por lo que se prohibe su reproducción o retransmisión, así como su uso para fines comerciales.
© LaCuerda.net · Aviso Legal · Privacidad