Tablatura para Guitarra de El Chaval de la Bachata: Donde esta eso amigo
Conexión · Inscripción
Letras y Acordes
Pantalla Completa
Imprimir
Versión Texto
Añadir Favorito
Otras Versiones

Mostrar Diagramas
Desfile Automático
Manipular Acordes
Formato del Texto

El Chaval de la Bachata
Donde esta eso amigo(TAB)
calidad:
cbct0011
AUTOR: El Chaval de la Bachata  corregir
ALBUM: Ya me Cansé (2008)
Enviado por Michael
El Chaval - Donde Están Esos Amigos

Capo en 1 (Clave de C#)

Discúlpame amigos. Eso es mi primer Tab, y falta unos partes y
estoy seguro que hay errores.
Quiero leer comentas y correcciones (srgofer@yahoo.com).
Pueden ver un hombre tocando esa cancion aquí
http://www.youtube.com/watch?v=AolUplzbZM8
Y El Chaval aquí http://www.youtube.com/watch?v=08GLykALchE&NR=1

No puedo encontrar sitio oficial par El Chaval,
pero hay información aquí:
http://www.pandora.com/music/artist/el+chaval

Introducción

e|--------------------------------------------------|
B|-------------14-------------------------------------
G|----13---15-------------------------------------------|
D|-15-------------------------------------------------|
A|--------------------------------------------------|
E|--------------------------------------------------|


|---  2 veces------------------------------|
                   [son acordes]
e|--------------------------------------------------|
B|--14-13h14p13---------1616-1414-1313--------------|
G|-------------15---------------------1515-1313---15|
D|---------------16-----------------------------15--|
A|--------------------------------------------------|
E|--------------------------------------------------|

   [ 4 veces     ]
e|------------------------1--------------------------|
B|---2p1--------2-----------4-2p1--------------------|
G|--3----3p1--3---3---------------2------------------|
D|-3--------3-------3--------------------------------|
A|---------------------------------------------------|
E|---------------------------------------------------|




Am          Am
Decían mis amigos
           G
Somos tus amigos
            F
Por toda la vida
           Am
Te seremos fiel

            Am
Me sentí alagado
           G
y muy superado
            F
casi mi fortuna
          Am
con ellos gaste

               Am
surgieron problemas
           G
en mi economía
              F
por un corto tiempo
        Am
desaparecí

Am    G           F
y aquellas palabras

que tanto decían
              G
ahora me doy cuenta
            Am
que no eran así

F                   G
¿donde están esos amigos
        Am
que me decían?

F                        G
que en la buenas y en la malas
          Am
conmigo estarían

F                  G
que cosa tienen la vida
          Am
todo era mentira
F                  G
porque de mi se alejaron
          Am
cuando yo caía

F               E
y solo me quedo uno
         Am
que me sonreía


F               E
y solo me quedo uno
            Am
por toda la vida

[Repita la introducción]

si señor es lamentable el caso
comprender cuando se hace leña de árbol caído
pero con fe en dios

oye Rubén con mucho cariño mi hermano
El Chaval

oye esa guitarra

   [ tremolo                        ]

e|-14--13-14-13-14-13-16-11--11-11-13-11-14-13------|
B|--------------------------------------------------|
G|--------------------------------------------------|
D|--------------------------------------------------|
A|--------------------------------------------------|
E|--------------------------------------------------|

e|--------------------------------------------------|
B|-14-13-14-13-14-16-14-13--10-11-13-13-11----------|
G|--------------------------------------------------|
D|--------------------------------------------------|
A|--------------------------------------------------|
E|--------------------------------------------------|

e|--------------------------------------------------|
B|-14-13-14-13-14-16-14-13--10-11-13-13-11----------|
G|--------------------------------------------------|
D|--------------------------------------------------|
A|--------------------------------------------------|
E|--------------------------------------------------|


             Am
una y mil mujeres
            G
de mi compañía
              F
me daban placeres
           Am
y me divertían

            Am
producto de todo
             G
lo que yo tenía
              F
pero en realidad
             Am
nunca fueron mías

            Am
escuchen señores
                 G
estas triste historia
              F
que por este medio
             Am
hoy le canto yo

Am   G      F
no es algo ficticio

es un realismo
            G
de algo muy serio
           Am
que me sucedió

F            G
los amigos y mujeres
       Am
que me divertían

F               G
todos me lo celebraban
          Am
cuando yo tenía

F                 G
pero a verme en decadencia
         Am
todo los perdía

F               E
y solo me quedo uno
            Am
por toda la vida

F               E
y solo me quedo uno
       Am
por toda la vida


[ tremolo                        ]

e|-14--13-14-13-14-13-16-11--11-11-13-11-14-13-------|
B|--------------------------------------------------|
G|--------------------------------------------------|
D|--------------------------------------------------|
A|--------------------------------------------------|
E|--------------------------------------------------|

que tristeza de la vida

e|--------------------------------------------------|
B|-14-13-14-13-14-16-14-13--10-11-13-13-11----------|
G|--------------------------------------------------|
D|--------------------------------------------------|
A|--------------------------------------------------|
E|--------------------------------------------------|

F               E
y solo me quedo uno
           F   G  Am
por toda la vida
Envía el tono de "Donde esta eso amigo" a tu celular/móvil
Este fichero es trabajo propio de su transcriptor y representa su interpretación personal de la canción. El material contenido en esta página es
para exclusivo uso privado, por lo que se prohibe su reproducción o retransmisión, así como su uso para fines comerciales.
© LaCuerda.net · Aviso Legal · Privacidad