Acordes de Guitarra » Z »Zapato 3 » Obstinado (Tab)

Obstinado
Zapato 3

Letras, Acordes y Tabs para Guitarra, Bajo y Ukulele

  • e--------------------------1
    b---------------------------
    g---------------------------
    d---------------------------
    a---------------------------
    e--0-0-1-0--0-1-0--0-1-0--0-1
    
    e---------------------------1
    b---------------------------1
    g---------------------------1
    d---------------------------3
    a---------------------------3
    e--0-0-1-0--0-1-0--0-1-0--0-1
    
    -------------------|
    -------------------|
    -------------------|
    -------------------|
    -5-4-5-4-----------|
    ---------5-4-5-1---|
    
  • +
    ¡Colabora con nosotros!
    Envíanos tu versión de esta canción

Letra de Obstinado
Obstinado de vivir,
hoy todo es rutina,
esta vida no es igual,
esta vida no es la misma,
obstinado en mi cuarto,
no puedo dormir,
busco la forma
de poder resistir.
Obstinado de la luz,
ya no quiero que me vean,
no no es por pena,
no no es por pena,
la botella esta vacia,
ya no tengo precision,
en mi cara hay una lagrima
que delata tu intencion.
CORTE
C5- d5- Bb5 - a5 Bb5
PERO UNA GITARRA HACE
Obstinado de vivir,
ya todo es rutina,
esta vida no es igual,
esta vida no es la misma,
la botella esta vacia,
ya no tengo precision,
en mi cara hay una lagrima
que delata tu intencion.
TABS BY Efrencho manuel.
E to X-CHO!
Hi-Fi Tabs Labs.
www.myspace.com/efrenchos
Mail: efrenchos@gmail.com
MSN: rammsquake@hotmail.com
Amigos del Jam (FACEBOOK GROUPS)




[Obstinado chords][Obstinado cifra]
© LaCuerda.net · aviso legal · privacidad · es · en · pt · contacto
DINAMICO