Acordes de Guitarra » Z »Zahara » Leñador y la mujer América (Tab)

Leñador y la mujer América
Zahara

Letras, Notas, Punteos, Tablaturas y Acordes de Guitarra (Tabs & Chords)

  • Tablatura
    LA tablatura.
    
    
    INTRO:
    Para la intro rasguea mudo contra el traste 12.
    
       E                       B         E                E6       E
    e|-0--------------|----------------|-0--------------|-0--------0-------|
    B|-0--------------|----------------|-0--------------|-0--------0-------|
    G|-1--------------|--------8-------|-1--------------|-1--------1-------|
    D|-2--------------|--------9-------|-2--------------|-2--------2-------|
    A|-2--------------|--------9-------|-2--------------|-4--------2-------|
    E|-0--------------|----------------|-0--------------|----------4-------|
       No quiero cambiar las   leyes naturales
    E                    B           E     E6  E
    pero venceré en este juego de animales.
    
       G#m              F#m              E
    e|-4--------------|-2--------------|-0--------------|----------------|
    B|-4--------------|-2--------------|-0--------------|----------------|
    
  • +
    ¡Colabora con nosotros!
    Envíanos tu versión de esta canción

Letra de Leñador y la mujer América
Para la intro rasguea mudo contra el traste 12.
No quiero cambiar las leyes naturales
pero venceré en este juego de animales.
Resisti ré en el canto de las bestias
y a cada paso creceremos venenosos.
Tanta brutalidad no acabará con nosotros ..
Ya no somos criaturas de este...
...mundo
Sube la tensión, aullamos como fieras ..
no quemar el sol será nuestra grandeza.
La pareja tóxica que dominará el planeta ..
desnudos en la tierra conquistando la belleza,
derribando la penumbra con nuestras puertas abiertas ..
C#m C#m ??? C#m C#m (como arriba)
Leñador y la Mujer América...
América...
América...
América...
Letra:
======
No quiero cambiar las leyes naturales
pero venceré en este juego de animales.
Resistiré en el canto de las bestias
y a cada paso creceremos venenosos.
Tanta brutalidad no acabará con nosotros
Ya no somos criaturas de este mundo.
Sube la tensión, aullamos como fieras
no quemar el sol será nuestra grandeza.
La pareja tóxica que dominará el planeta
desnudos en la tierra conquistando la belleza,
derribando la penumbra con nuestras puertas abiertas
Leñador y la Mujer América - América - América - América



© LaCuerda.net · Aviso Legal · Privacidad