Tablatura para Guitarra de Virlan Garcia: Ni pisando el dolor
Conexión · Inscripción
Letras y Acordes
Pantalla Completa
Imprimir
Versión Texto
Añadir Favorito
Otras Versiones

Mostrar Diagramas
Desfile Automático
Manipular Acordes
Formato del Texto

Virlan Garcia
Ni pisando el dolor(TAB)
calidad:
vgci0251
AUTOR: Virlan Garcia
ALBUM: Voy a Amarte hoy (2017)
Enviado por Jeysson
Intro Acordes:
G Bm Em D7 C Am D7
G Bm Em D7 C Am D7

E|--------------3--5--7--
B|-----------------------
G|--------------4--5--7--
D|-----2--4--5-----------
A|--5--------------------
E|-----------------------

E|--8/10--8--7--5--7--
B|--------------------
G|--9/11--9--7--5--7--
D|--------------------
A|--------------------
E|--------------------

E|--8/10--8--7--5--3--
B|--------------------
G|--9/11--9--7--5--4--
D|--------------------
A|--------------------
E|--------------------

E|-----3--------5--7--8--
B|-----------------------
G|--4-----4--5-----7--9--
D|-----------------------
A|-----------------------
E|-----------------------

E|-----8--8--7--5--3--2--3--5--7--8--7--
B|--------------------------------------
G|--9--9--9--7--5--4--2--4--5--7--9--7--
D|--------------------------------------
A|--------------------------------------
E|--------------------------------------

E|--8/10--8--7--5--5/7--
B|----------------------
G|--9/11--9--7--5--5/7--
D|----------------------
A|----------------------
E|----------------------

E|--8/10--8--7--5--3--0--
B|-----------------------
G|--9/11--9--7--5--4-----
D|-----------------------
A|-----------------------
E|-----------------------

E|-----3--------5--7--8--
B|-----------------------
G|--4-----4--5-----7--9--
D|-----------------------
A|-----------------------
E|-----------------------

E|----8------8------7----5--3--2--3--5--6--7--
B|--------------------------------------------
G|--9---9--9---9--7---7--5--4--2--4--5--6--7--
D|--------------------------------------------
A|--------------------------------------------
E|--------------------------------------------
Este fichero es trabajo propio de su transcriptor y representa su interpretación personal de la canción. El material contenido en esta página es
para exclusivo uso privado, por lo que se prohibe su reproducción o retransmisión, así como su uso para fines comerciales.
© LaCuerda.net · Aviso Legal · Privacidad