Tablatura para Bajo de Vicentico: Paisaje
Conexión · Inscripción
Letras y Acordes
Pantalla Completa
Imprimir
Versión Texto
Añadir Favorito
Otras Versiones

Mostrar Diagramas
Desfile Automático
Formato del Texto


Paisaje(BAJ)

Vicentico

calidad:
vice0353
AUTOR: Franco Simone
ALBUM: desconocido
Enviado por erick
ojo: es bajo de 5 cuerdas solo se utiliza la 5 cuerda en algunas partes,
se tiene que escuchar bien la canción para llevar el ritmo.

g-----------------------------------------------------------|
d-----------------------------------------------------------|
a-------------------6-6-6-6-------------4-4-4-4---2-4-4---4-|
e-6-6-6-6-4-6-6-4-----------6-4-4-4-4-4---------4-------4---|
b-----------------6-----------------------------------------|

g---------------------|
d---------------------|
a-8-8-8-8-8-8-8-5-----|
e-----------------8-6-|
b---------------------|

No debemos de pensar que ahora es diferente
Mil momentos como este quedan en mi mente
No se piensa en el verano cuando cae la nieve

g---------------------|
d---------------------|
a-4--------4/8--------|
e---------------------|
b---------------------|

Deja que pase un momento y volveremos a querernos.

g-----------------------------------------------------------|
d-----------------------------------------------------------|
a-----------------------------------------------------------|
e-6-6-6-6-6-4-6-6-4---6-6-6-6-6-4-6-6-4---------------------|
b-------------------6-------------------6-------------------|

Jamas la logica del mundo nos ha dividido

g-----------------------------------------------------------|
d-----------------------------------------------------------|
a-6-6-6-6-6-4-6-6-4---6-6-6-6-6-4-6-6-4---------------------|
e-------------------6-------------------6-------------------|
b-----------------------------------------------------------|

Ni el futuro tan incierto nos ha preocupado

g-----------------------------------------------------------|
d-----------------------------------------------------------|
a-----------------------------------------------------------|
e-4-4-4-4-4-2-4-4-2---4-4-4-4-4-2-4-4-2---------------------|
b-------------------4-------------------4-------------------|

Una vez los dos pensamos hay que separarse

g----------------------------------------------------------------|
d----------------------------------------------------------------|
a-4-4-4-4---4-4-4-4-8-8-8-8-8-8-8-8-8/20-20-20-20-20-20-20-18-16-|
e---------4------------------------------------------------------|
b----------------------------------------------------------------|

Mas deshicimos las maletas antes de emprender el viaje

g-------------------------------------------------------|
d---------------------------------------------5-5-5-5-3-|
a---------------8-8-8-8-6-5-3-5-5-3-5-3-5-5-3-----------|
e-6-6-6---6-6-6-----------------------------------------|
b-------6-----------------------------------------------|

Tú.. no podras faltarme cuando falte todo a mi alrededor
Tú.. aire que respiro en aquel paisaje donde vivo yo

g-------------------------------------|
d-------------------------------------|
a-6-4-6-6-4-6-4-6-6-4---------8-8-8-8-|
e---------------------6-4-6-6---------|
b-------------------------------------|

Tú.. tú me das la fuerza que se necesita para no marcharse
Tú me das amor...me das amor
Este fichero es trabajo propio de su transcriptor y representa su interpretación personal de la canción. El material contenido en esta página es
para exclusivo uso privado, por lo que se prohibe su reproducción o retransmisión, así como su uso para fines comerciales.

© LaCuerda.net · Aviso Legal · Privacidad