Acordes de Guitarra » V »Vicente García » Juana Mecho (Tab)

Juana Mecho
Vicente García

Letras, Acordes y Tabs para Guitarra, Bajo y Ukulele

  •         G                   Am7        D7
    e|---------------------------------------------------|
    B|-3/5--5--3--3--------3-----------------------------|
    G|---------------4--4------4/2--2--2--0--------------|  x2
    D|---------------------------------------------------|
    A|---------------------------------------------------|
    E|---------------------------------------------------|
    
    
               Cmaj7(9)                  Em7
    e|---------------------------------------------------|
    B|---------------------------------------------------|
    G|-------0--2/4--4--4--4/2--0--2--0--5--4--2--4------|
    D|-0--2----------------------------------------------|
    A|---------------------------------------------------|
    E|---------------------------------------------------|
    
               Cmaj7(9)                     D7
    e|--------------------------------------0--2--3--/5-----|
    B|--------------------------------------1--1--1---------|
    
  • +
    ¡Colabora con nosotros!
    Envíanos tu versión de esta canción

Letra de Juana Mecho
Verso 1:
Ay Juana mecho que tu me tiene' impuesto
Ay Juana Mecho que tu me tiene' impuesto
A darme un beso, cuando me acuesto
Y a darme un beso, ay cuando me acuesto
Verso 2:
La quiero y la quiero, y nadie me lo quita
La quiero y la quiero, y nadie me lo quita
Yo la conocí desde muchachita
Yo la conocí desde muchachita (ya tu ve')
(Se repite intro) G - Am7 - D7
Verso 3:
Ay Juana Mecho que tu me tiene' impuesto
Ay Juanita Mecho que tu me tiene' impuesto
A darme un beso, cuando me acuesto
Y a darme un beso, ay cuando me acuesto (ya tu ve')
Interludio:
Verso 3:
Pero es que Juana mecho, me tiene impuesto
Pero es que Juana Mecho, me tiene Mal
Final:
Y es que Juanita mecho, me tiene impuesto
Pero es que Juana Mecho me tiene... Cmaj7(9) - G/B - Am7 - Em7
VALDIVIA - CHILE | PR//




[Juana Mecho chords][Juana Mecho cifra]
© LaCuerda.net · aviso legal · privacidad · es · en · pt · contacto
DINAMICO