Tablatura para Guitarra de Turf: Magia blanca
Conexión · Inscripción
Letras y Acordes
Pantalla Completa
Imprimir
Versión Texto
Añadir Favorito
Otras Versiones

Mostrar Diagramas
Desfile Automático
Manipular Acordes
Formato del Texto


Magia blanca(TAB)

Turf

calidad:
turf0233
AUTOR: Turf  corregir
ALBUM: desconocido
Enviado por gustavo
Intro
e|----------------------------------|
B|----------------------------------|
G|----------------------------------|
D|----------------------------------|
A|--2-2-2-2-2-------------------2-0-|
E|------------5--5-5-3-5--3-5-3-----|

e|----------------------------------------|
B|----------------------------------------|
G|----------------------------------------|
D|----------------------------------------|
A|--2-2-2-2-2-5--5-5-3-2-0--------2-0---0-|
E|--------------------------3-5-3-----3---|

e|----------------------------------|
B|----------------------------------|
G|----------------------------------|
D|----------------------------------|
A|--2-2-2-2-2-------------------2-0-|
E|------------5--5-5-3-5--3-5-3-----|

e|----------------------------------------|
B|----------------------------------------|
G|----------------------------------------|
D|----------------------------------------|
A|--2-2-2-2-2-5--5-5-3-2-0--------2-0---0-|
E|--------------------------3-5-3-----3---|

G Bm Am ¿Qué decís que no vas a mentir? Si te encanta.
G Bm Am ¿Qué decís que no vas a reír? Si te encanta.
G Bm ¿Qué decís que no vas a venir?
Am Am G Si pensás en venir cada vez que te alejas de mí.
Bm Am Cm7 ¿Qué decís que no vas a llorar? Si te encanta, oh.
D G Em Es una noche más,
Am D llena de magia blanca.
G Otra oportunidad.
G Bm Am ¿Qué decís que no vas a bailar? Si te encanta.
G Bm Am ¿Qué decís que no vas a probar? Si te encanta [te encanta].
Bm ¿Qué decís que no vas a salir?
Am Am G Si pensás en salir cada vez que te alejas de aquí.
Bm Am Cm7 ¿Qué decís que no vas a gritar? Si te encanta, oh.
D G Em Es una noche más,
Am D llena de magia blanca.
G Em Bm Am Am otra oportunidad,
Em Bm Am Am de magia blanca. de magia blanca. En el Interludio es lo mismo que el intro solo que cambia el fin D|------------------------| A|---6-5-0-3--------------| E|------------------------|
D G Em Es una noche más,
Am D llena de magia blanca.
G Em otra oportunidad,
Am donde el dolor descansa.
D G Em Es una noche más,
Am D llena de magia blanca.
G Em Bm Am Am otra oportunidad,
Em Bm Am Am de magia blanca.
Em Bm Am Am de magia blanca, ah, oh, oh,
Em Bm Am Cm7 de magia blanca, ah, oh, oh,
G de magia blanca.
Este fichero es trabajo propio de su transcriptor y representa su interpretación personal de la canción. El material contenido en esta página es
para exclusivo uso privado, por lo que se prohibe su reproducción o retransmisión, así como su uso para fines comerciales.

© LaCuerda.net · Aviso Legal · Privacidad