Acordes de Guitarra » T »Topos » Ya es muy tarde (Tab)

Ya es muy tarde
Topos

Letras, Acordes y Tabs para Guitarra, Bajo y Ukulele

  • INTRO:A-B-D-E
    
    
      A        B       D         E
    1------------------6/7-7-6-7-9/10-9-
    2-6/777777-8/999999-----------------
    3-----------------------------------
    4-----------------------------------
    5-----------------------------------
    6-----------------------------------X 2
    
    1--7-7-6-6-4-222222-0-0-2-2-4-2-
    2-7-----------------------------
    3-------------------------------
    4-------------------------------
    5-------------------------------
    6-------------------------------
    
    1--7-7-6-6-4-222222-7-6-9-7-
    2-7-------------------------
    
  • +
    ¡Colabora con nosotros!
    Envíanos tu versión de esta canción

Letra de Ya es muy tarde
1--7-7-6-6-4-222222-0-0-2-2-4-2-
1--7-7-6-6-4-222222-7-6-9-7-
NI QUIZAS HOY PUEDA DORMIR
Y NO VOLVER A REPETIR
SIEMPRE ES EL MISMO HERROR
YA NO SOPORTO VER EL SOL
YA ES MUY TARDE,YA ES MUY TARDE
YA ES MUY TARDE,YAA AH
YA ES MUY TARDE,YA ES MUY TARDE
YA ES MUY TARDE,YAA AH
NO SE SI FRENAR
NOSE SI SEFGUIR
NO SE SI FRENAR
NOSE SI SEFGUIR
NI QUIZAS HOY PUEDA DORMIR
Y NO VOLVER A REPETIR
SIEMPRE ES EL MISMO HERROR
YA NO SOPORTO VER EL SOL
YA ES MUY TARDE,YA ES MUY TARDE
YA ES MUY TARDE,YAA AH
YA ES MUY TARDE,YA ES MUY TARDE
YA ES MUY TARDE,YAA AH
NO SE SI FRENAR,
NOSE SI SEFGUIR
NO SE SI FRENAR,
NOSE SI SEFGUIR
YA ES MUY TARDE,YA ES MUY TARDE
YA ES MUY TARDE,YAA AH X4
PUNK ROCK VIEJAA!!!
RESAKA PUNK ROCK (SAN LUIS)




[Ya es muy tarde chords][Ya es muy tarde cifra]
© LaCuerda.net · aviso legal · privacidad · es · en · pt · contacto
DINAMICO