Tablatura para Guitarra de Tigrillos: Mira Oye
Conexión · Inscripción
Letras y Acordes
Pantalla Completa
Imprimir
Versión Texto
Añadir Favorito
Otras Versiones

Mostrar Diagramas
Desfile Automático
Manipular Acordes
Formato del Texto


Tigrillos
Mira Oye(TAB)
calidad:
tigr0014
AUTOR: Tigrillos  corregir
ALBUM: desconocido
Enviado por NaKo_AgUiLa
hehepa!!!

Intro:
e|--------------------------------------------------------
B|--------------------------------------------------------
G|--------------------------------------------------------
D|--------------------------------------------------------
A|-5---3--------3-5-3---1-------5---3--------3-5-3---1----
E|-------5----5-----------3-----------5----5-----------3--

(rapido)
e|--------------------------------------------------------------------------------------------------
B|--------------------------------------------------------------------------------------------------
G|--------------------------------------------------------------------------------------------------
D|--------------------------------------------------------------------------------------------------
A|-5--3---3-5----3---5-3----1---1-3----1---3-5-3---3-5----3---5-3----1---1-3-----1---3--5-5---5-5-5-
E|------5----------5----------3----------3-------5----------5----------3-----------3----------------


ACORDEÓN.
e|-----------------------------------------------------------------------------------------
B|-----------------------------------------------------------------------------------------
G|-----------------------------------------------------------------------------------------
D|-----------3--------------3--------------2--------------2--------------3--------------3--
A|-5-5-5-5-5------5-5-5-5-5------3-3-3-3-3------3-3-3-3-3------5-5-5-5-5------5-5-5-5-5----
E|-----------------------------------------------------------------------------------------

e|-----------------------------------------------------------------------------------------
B|-----------------------------------------------------------------------------------------
G|-----------------------------------------------------------------------------------------
D|------------2--------------2-3----2------------------------------------------------------
A|--3-3-3-3-3------3-3-3-3-3----------5----3-5-3-5-3-5-5-5---------------------------------
E|-----------------------------------------------------------------------------------------



Dm C Mira, esta cumbia si la gozo
Dm C Oye, este ritmo cadencioso
Dm C Mira, este baile es contagioso
Dm C Oye, de gozarla soy dichoso
Dm Tienes que bailar, tienes que bailar
C Mi pareja serás tu.
Dm Déjate llevar , déjate llevar
C Suelta el cuerpo como yo.
Dm Pronto aprenderás, pronto aprenderás
C Si tu sientes el sabor.
Dm Tu vas a vivir, tu vas vivir
C Toda toda de emoción.
Dm Mueve tu cintura, mueve tu cintura
C Mueve tu cadera, mueve tu cadera.
Dm Mueve tu cintura, tu cadera, tu cintura
C Muévete y remueve sentirás la sabrosura.
Dm Mueve tu cintura, mueve tu cintura
C Mueve tu cadera, mueve tu cadera.
Dm Mueve tu cintura, tu cadera, tu cintura
C Gira gira gira gira gira de locura, ohohohoh. e|-------------------------------- B|-------------------------------- G|-------------------------------- D|-2-3----2----------------------- A|----------5----3-5-3-5-3-5-5-5-- E|-------------------------------- Intro: e|-------------------------------------------------------- B|-------------------------------------------------------- G|-------------------------------------------------------- D|-------------------------------------------------------- A|-5---3--------3-5-3---1-------5---3--------3-5-3---1---- E|-------5----5-----------3-----------5----5-----------3-- (rapido) e|----------------------------------------------------------------------------------------- B|----------------------------------------------------------------------------------------- G|----------------------------------------------------------------------------------------- D|----------------------------------------------------------------------------------------- A|-5--3---3-5----3---5-3----1---1-3----1---3-5-3---3-5----3---5-3----1---1-3-----1---3----- E|------5----------5----------3----------3-------5----------5----------3-----------3------- ACORDEÓN. e|----------------------------------------------------------------------------------------- B|----------------------------------------------------------------------------------------- G|----------------------------------------------------------------------------------------- D|-----------3--------------3--------------2--------------2--------------3--------------3-- A|-5-5-5-5-5------5-5-5-5-5------3-3-3-3-3------3-3-3-3-3------5-5-5-5-5------5-5-5-5-5---- E|----------------------------------------------------------------------------------------- e|----------------------------------------------------------------------------------------- B|----------------------------------------------------------------------------------------- G|----------------------------------------------------------------------------------------- D|------------2--------------2-3----2------------------------------------------------------ A|--3-3-3-3-3------3-3-3-3-3----------5----3-5-3-5-3-5-5-5--------------------------------- E|-----------------------------------------------------------------------------------------
Dm C Mira, esta cumbia si la gozo
Dm C Oye, este ritmo cadencioso
Dm C Mira, este baile es contagioso
Dm C Oye, de gozarla soy dichoso
Dm Tienes que bailar, tienes que bailar
C Mi pareja serás tu.
Dm Déjate llevar , déjate llevar
C Suelta el cuerpo como yo.
Dm Pronto aprenderás, pronto aprenderás
C Si tu sientes el sabor.
Dm Tu vas a vivir, tu vas vivir
C Toda toda de emoción.
Dm Mueve tu cintura, mueve tu cintura
C Mueve tu cadera, mueve tu cadera.
Dm Mueve tu cintura, tu cadera, tu cintura
C Muévete y remueve sentirás la sabrosura.
Dm Mueve tu cintura, mueve tu cintura
C Mueve tu cadera, mueve tu cadera.
Dm Mueve tu cintura, tu cadera, tu cintura
C Gira gira gira gira gira de locura, ohohohoh. e|-------------------------------- B|-------------------------------- G|-------------------------------- D|-2-3----2----------------------- A|----------5----3-5-3-5-3-5-5-5-- E|--------------------------------
Este fichero es trabajo propio de su transcriptor y representa su interpretación personal de la canción. El material contenido en esta página es
para exclusivo uso privado, por lo que se prohibe su reproducción o retransmisión, así como su uso para fines comerciales.
© LaCuerda.net · Aviso Legal · Privacidad