Acordes de Guitarra » T »Teresa Parodi » Creo (Tab)
  • Letra y Acordes
    |---------------------------------------|
    |---------------------------------------|
    |---------------------------------------|
    |-------4--6----------------------------|  
    |--------------4-5----------------------|
    |--------------------7-7----------------|
    
    PUNTEO 2°. (se realiza al termino de la estrofa)
    |----------------------------------------------------|
    |----------------------------------------------------|
    |----------------------------------------------------|  
    |----------------------------------------------------|
    |-----------------4-2-0-2-4--------------------------|
    |----5-4-2-0------------------0-2-4-5-7-5-4-2-0------|
    
    
    MI                           SOL#m
    NECESITO HERMANO QUE ME DIGAS PUEDO
                 DO#             FA#m
    CON LAS MISMAS GANAS QUE LO DIGO YO,
    
  • +
    ¡Colabora con nosotros!
    Envíanos tu versión de esta canción

Letra de Creo
PUNTEO 2°. (se realiza al termino de la estrofa)
NECESITO HERMANO QUE ME DIGAS PUEDO
CON LAS MISMAS GANAS QUE LO DIGO YO,
NECESITO HERMANO
QUE NOS ENCONTREMOS,
EN UNA MIRADA,
EN UNA CANCIÓN.
Estribillo
Y CREO EN VOS Y EN MI, EN MI Y EN VOS.
EN LA COMPLICIDAD DE LA ILUSIÓN
NO DEJO DE CREER EN VOS Y EN MI,
EN MI, Y EN VOS.
LLEVO EN LA GUITARRA UN AMOR URGENTE
QUE ME DA CORAJE CON OBSTINACIÓN.
ESPERANZA INVITA
ME SOSTIENE SIEMPRE
TAN INTENSAMENTE
QUE NO TENGO OPCIÓN.
Estribillo
Y CREO EN VOS Y EN MI, EN MI Y EN VOS.
EN LA COMPLICIDAD DE LA ILUSIÓN.
NO DEJO DE CREER EN VOS Y EN MI,
EN MI, Y EN VOS.
PORQUE CREO EN TODO LO QUE NOS DEBEMOS,
PORQUE CREO EN ESTA NUESTRA REBELIÓN,
DE AMOROSA VIDA,
DE AMOROSA FUERZA,
DE AMOROSA RABIA,
DE AMOROSO AMOR.
Estribillo
Y CREO EN VOS Y EN MI, EN MI Y EN VOS.
EN LA COMPLICIDAD DE LA ILUSIÓN.
NO DEJO DE CREER EN VOS Y EN MI,
EN MI, Y EN VOS.



© LaCuerda.net · aviso legal · privacidad · contacto
DINAMICO