Acordes de Guitarra » S »Sumo » TV Caliente (Tab)

TV Caliente
Sumo

  • Letra y Acordes
    Intro: D - [G - C - G - D - G - C - D - C - G - D]----> Parte silbada
    
    
    D
     So well, so now, you're here next to me
    I want you so much
    That it seems strange to me
    So strange that it seems wrong to me
    Seeing as how, seeing as how
    You're only on the TV
    
    G         C             G        D
     Ageless beauty with a sense of duty
    G      C           D-C G     D
     On a film, on the TV right now
    Within sight, but out of reach
    Oh I wonder, oh I wonder, oh I wonder how?
    
    How to make you, how to make you,
    How to make you see me too
    
  • Tab p/Bajo
    INTRO
    
    G|--------4----------|
    D|-7-7-7-7-7--7-7-7--| X 4
    A|5-5-5-5----5-5-----|
    E|------------------5|
    
      B     C     B           B     C
    G|--4-4---5-5---4-4---2-2|--4-4---5-5--------|
    D|-----------------------|-------------------| X 2
    A|2--2--3--3--2--2--0--0-|2--2--3--3--5-3-2-0|
    E|-----------------------|-------------------|
    
    VERSOS
    
    G|--------4----------|
    D|-7-7-7-7-7--7-7-7--| X 4
    A|5-5-5-5----5-5-----|
    E|------------------5|
    
    ESTRIBILLO ("Ageless beauty with a sense of duty...)
    
      B     C     B           B     C
    G|--4-4---5-5---4-4---2-2|--4-4---5-5--------|
    D|-----------------------|-------------------| X 2
    A|2--2--3--3--2--2--0--0-|2--2--3--3--5-3-2-0|
    E|-----------------------|-------------------|
    
    VERSOS
    
    ESTRIBILLO
    ("You've got blonde hair and blue and blue eyes...")
    
    SOLO DE SAXO (el bajo se clava en A)
    
    VERSOS
    
    ESTRIBILLO ("in a dress, in a dressing gown...)
    
    SOLO DE SAXO
    
    VERSOS
    
    ESTRIBILLO
    ("You've got blonde hair and blue and blue eyes...")
    
    SOLO DE SAXO Y FINAL
  • Tab p/Bajo
    Intro y Estrofa:
    
    G|--------------4------------------|
    D|----7---7---7---7---7---7--------|
    A|--5---5---5-------5---5---5------|
    E|------------------------------5--|
    
    
    1° y 2° Estribillo:
    
    G|--4---4---4-5---5---5-4---4---4------------|
    D|----5---5-----5---5-----5---5---7-5-7-5-7--|
    A|-------------------------------------------|
    E|-------------------------------------------|
    
    G|--4---4---4-5---5---5--7-5-4------------|
    D|----5---5-----5---5----------7-5-7-5-7--|
    A|----------------------------------------|
    E|----------------------------------------|
    
    
    3° 4° y 5° Estribillo:
    
    G|--4---4---4-5---5---5-4---4---4------------|
    D|----5---5-----5---5-----5---5---7-5-7-5-7--|
    A|-------------------------------------------|
    E|-------------------------------------------|
    
    G|--4---4---4-5---5---5--7-5-4-----------|
    D|----5---5-----5---5----------7-5-7-5-7-|
    A|---------------------------------------|
    E|---------------------------------------|
    
    G|-------------------------------|
    D|-7-5-7-5-7-7-5-7
  • Batería
    C: crash 
    S: splash
    H: hi-hat (X: abierto, x: medio cerrado)
    A2: apoyatura doble
    t: tacho
    T1: tom 1
    T2: tom 2
    Ch: chancha
    B: bombo 
    
    intro
    C |----------------------------X-|
    H |-x-x-x-x-x-x-x-x-x-x-x-x-x----|
    T |-----o-------o-------o--------|
    T1|------------------------------|
    T2|------------------------------|
    Ch|------------------------------|
    B |-o--o----o-o-----o--o----o--o-|
    
    puente
    you got blond hair and blue blue eyes...
    X|-x-xxxxx--xxxxxxxx--xxxxxxxx--xxxxxxxx--|
    B|-o---o----o----o----o----o----o----o----|
    la linea marcada 'X' puede ser el aro de un tom,
    un cencerro, o algo asi. escuchen la cancion
    a ver a que les suena. 
    
    i'm lost in your hair
    C |--------------X-------------------|
    H |----------------xxxxxxxxxxxxxxx---|
    T |-------------------o-------o------|
    T1|----------------------------------|
    T2|-oooooo---------------------------|
    Ch|-------oooooo---------------------|
    B |--------------o--------o----------|
    
    sigue con este ritmo, hasta 
  • +
    ¡Colabora con nosotros!
    Envíanos tu versión de esta canción

Letra de TV Caliente
So well, so now, you're here next to me
I want you so much
That it seems strange to me
So strange that it seems wrong to me
Seeing as how, seeing as how
You're only on the TV
Ageless beauty with a sense of duty
On a film, on the TV right now
Within sight, but out of reach
Oh I wonder, oh I wonder, oh I wonder how?
How to make you, how to make you,
How to make you see me too
Slow and easy with Virna Lisi, in a bed
made for two
Walk the streets we're both so happy,
Because the whole thing is so new.
You're Virna Lisi, slow and easy
In a lifetime made for two
You've got blonde hair and blue and blue eyes
We're a strange pair under stranger skies
Be fair, be fair. Don't be surprised
We're a strange pair under stranger skies
The image fickers, is something wrong?
This aint nothing, it's only a song
So don't you worry, don't you hurry, just you turry
With me, 'cos I'm so lone
And you... in a dress, in a dressing gown
going up or going down
With a smile up here and one down there
Let me hold your hand, kiss your neck,
Get loss in your hair
I'm lost in your hair ,babe
Lisi!!!
Virna Lisi !!!!
Lisi !!!
Virna Lisi, oh!!!
You've got blonde hair and blue and blue eyes
We're a strange pair under stranger skies
Be fair, be fair. Don't be surprised
We're a strange pair under stranger skies
The sky is falling, the sky is falling
Somebody catch it please
Slow and easy with Virna Lisi in a bed
Made for two
I aint got time to catch the sky
I aint got time for her and you



© LaCuerda.net · aviso legal · privacidad · contacto