Acordes de Guitarra » S »Sumo » Pinini Reggae (Tab)

Pinini Reggae
Sumo

Letras, Notas, Punteos, Tablaturas y Acordes de Guitarra (Tabs & Chords)

  • Tablatura
    |----------------------------------|
    |----------------------------------|
    |--7-4---7-4---7-4-----------------|
    |------------------7-4---7-4---7-4-|
    
    
    guitarra:
    DO#         SOL#
    |--44-444-----44-444--|
    |--66-666-----44-444--|
    |--66-666-----55-555--|[x4]
    |--66-666-----66-666--|
    |--44-444-----66-666--|
    |-------------44-444--|
    
    
    guitarra 2:
    RIFF:
    |---------------|----------------|
    |---------------|----------------|
    
  • Tab p/Bajo
    El tema es todo igual pero con alguna que otra variación
    en la estrofa, por las dudas anote casi todo.
    DETALLE: en la grabacion por alguna razon el bajo "no esta
             afinado en LA 440" por lo que para tocarlo
             sobre la pista hay que afinarlo una pendeja
             mas abajo. Sino sale igual, yo de incha bolas nomas.
    
      00'05" (Empieza el bajo)
    G|--------------------------------------------------------------|
    D|--------------------------------------------------------------|
    A|--7-4---7-4---7-4---------------------------------------------|
    E|------------------7-4---7-4---7-4-----------------------------| X6
    
      ESTRIBO 00'34"
    G|--------------------------------------------------------------|
    D|--------------------------------------------------------------|
    A|--------------------------------------------------2---4---16/-|
    E|--2---2-3-4-2-4-----2---2-3-4-2-4-----2---2-3-4---------------|
    
      00'44"
    G|----------------------------------|
    D|----------------------------------|
    A|--7-4
  • +
    ¡Colabora con nosotros!
    Envíanos tu versión de esta canción

Letra de Pinini Reggae
guitarra:
guitarra 2:
RIFF:
Verso:
[Repite verso]
[Repite verso]
[repite riff]
fin.
pupi_pr@hotmail.com.ar



© LaCuerda.net · Aviso Legal · Privacidad