Acordes de Guitarra » S »Sumo » Next Week (Tab)

Next Week
Sumo

Letras, Acordes y Tabs para Guitarra, Bajo y Ukulele

  •                                         SOLm   SOL#m
    1-------0---0---0---0------0---0---------------------------
    2-----3---2---3---2------3---2---3--------4-4---5-5--------
    3-----------------------------------------5-5---6-6--------
    4-----------------------------------------5-5---6-6--------
    5----------------------------------------------------------
    6----------------------------------------------------------
    
    
    
    despues toda la cancion es a base de E5 pero tocando una sola cuerda o dos y bien rapido fijense
    
    
    E5
    Come on little baby
    wan't you love me next week
    I want to love you next week
    Come on lady
    show me next week
    I want to show you
    
  • Bueno acá está la version del tema NextWeek, del cd Obras Cumbres.
    (aunque es muy parecida a la de Corpiños en la madrugada)
    
    Algunas indicaciones:
    s: slide o barrida.
    
    
    Intro:
    G-12s13-12s13-----------------------------
    D-11s12-11s12-----------------------------
    A-----------------------------------------
    E------------0000000000000053535300000000- x4
    
    Silencio del bajo.
    Come one little baby
    wan't you love next week
    I want to love you next week
    
    Come on lady
    show me next week
    I want to show you
    next week
    
    I said come on baby
    know me next week
    I wanna know you next week
    
    I said come on lady
    do it next week
    I want to do it next week
    yeah!!
    
    Vuelve el bajo con el YEAH!
    G-------------------------------12s13-12s13----
    D-------------------------------11s12-11s12----
    A----------------------------------------------
    E--12s00000000000053535300000000---------------x2
    
    Silencio de bajo de nuevo:
    Dame nena dame nesquick
    quiero tu nesquick
    Digo: dale baby
    dame nesquick
    nesecito nesquick
    
    Vuelve:
    I 
  • +
    ¡Colabora con nosotros!
    Envíanos tu versión de esta canción

Letra de Next Week
despues toda la cancion es a base de E5 pero tocando una sola cuerda o dos y bien rapido fijense
Come on little baby
wan't you love me next week
I want to love you next week
Come on lady
show me next week
I want to show you
next week
I said come on baby
know me next week
I wanna know you next week
I said come on lady
do it next week
I want to do it next week
y eah!!
Dame nena dame nest-quick
quiero tu nest-quick
Digo: dale baby
dame nest-quick
nesecito nest-quick
I sais come on little lady
show me next week... etc...
Come on sweet dream thing
give me next week
I want to have it next week
come lady... etc...
quiero
quiero
quiero
I really, I wanna
really, I wanna
really, oh, oh, oh!
creo que es asi.. obviamente no esta igual pero suena algo




[Next Week chords][Next Week cifra]
© LaCuerda.net · aviso legal · privacidad · es · en · pt · contacto
DINAMICO