Tablatura para Bajo de La Sonora Dinamita: Hechicería
Conexión · Inscripción
Letras y Acordes
Pantalla Completa
Imprimir
Versión Texto
Añadir Favorito
Otras Versiones

Mostrar Diagramas
Desfile Automático
Formato del Texto


Hechicería(BAJ)

La Sonora Dinamita

calidad:
sdin0272
AUTOR: Lucho Argaín
ALBUM: desconocido
Enviado por SINHUE
Intro:
    C
G|------------|
D|------------|
A|-----7--10--| X24
E|--8---------|

Verso:
    C           C           A#         C                 C
G|-----------------------------------------------|    |------------|
D|-----------------------------------------------|    |------------|
A|-----7--10-------7--10-------5--8-------7--10--| x4 |-----7--10--| X2
E|--8-----------8-----------6----------8---------|    |--8---------|

    C           C           A#         C                 C
G|-----------------------------------------------|    |------------|
D|-----------------------------------------------|    |------------|
A|-----7--10-------7--10-------5--8-------7--10--| x4 |-----7--10--| X6
E|--8-----------8-----------6----------8---------|    |--8---------|

Puente:
    C           Dm                 C
G|------------------------|     |------------|
D|--------------------7---|     |------------|
A|-----7--10----5--8------| X4  |-----7--10--| X24
E|--8---------------------|     |--8---------|

Verso:
    C           C           A#         C                 C
G|-----------------------------------------------|    |------------|
D|-----------------------------------------------|    |------------|
A|-----7--10-------7--10-------5--8-------7--10--| x4 |-----7--10--| X2
E|--8-----------8-----------6----------8---------|    |--8---------|

    C           C           A#         C                 C
G|-----------------------------------------------|    |------------|
D|-----------------------------------------------|    |------------|
A|-----7--10-------7--10-------5--8-------7--10--| x4 |-----7--10--| X6
E|--8-----------8-----------6----------8---------|    |--8---------|

Final:
    C           Dm                 C
G|------------------------|     |------------|
D|--------------------7---|     |------------|
A|-----7--10----5--8------| X4  |-----7--10--| X24
E|--8---------------------|     |--8---------|
Este fichero es trabajo propio de su transcriptor y representa su interpretación personal de la canción. El material contenido en esta página es
para exclusivo uso privado, por lo que se prohibe su reproducción o retransmisión, así como su uso para fines comerciales.

© LaCuerda.net · Aviso Legal · Privacidad