Tablatura para Guitarra de Silvio Rodriguez: Derecho Humano
Conexión · Inscripción
Letras y Acordes
Pantalla Completa
Imprimir
Versión Texto
Añadir Favorito
Otras Versiones

Mostrar Diagramas
Desfile Automático
Manipular Acordes
Formato del Texto


Derecho Humano(TAB)

Silvio Rodriguez

calidad:
srod0442
AUTOR: Silvio Rodríguez
ALBUM: Mariposas
Enviado por Alan
KE ONDA LOCOS XD soy el Mex =) aki les dejo la intro
Capo en 1er Traste
Las notas en paréntesis ( ) pueden ser tocadas o no
Las notas ke estan entre las paredes | | pueden tocarse en lugar
de las ke le continuan OJO no token las dos al mismo tiempo

                 Facil
=O Dificultad :->Intermedio<-
                 Dificil

e|--------------------------0-2-3-------------------------------
B|-----0--0h1-3--------0-1-3-----------5-----------0-0-(0)-3-0--
G|--0h2--0------4---0h2-----------------------------------------
D|-0----------------------------2p0---------0h2-----4--2--------
A|-----------------3---------------3-2-3--2h3-----5---3--2--3-
E|3-----------2-------------------------------------------------


1|----------------------3--|2|(2)-7-------3---|2|(2)-5-12-8---10-
2|--0-0-(0)-3-0----0-0----5|2|(0)---0--0----5-|2|(0)--------10---
3|-------------------------|2|(0)-------------|2|(0)-------------
4|---4--2-----------4----2-----------4----2----------------------
5|-5---3---2-3----5----3-----------5----3--------------10---9----
6|---------------------------------------------------------------

                                                   p
1|-7h10-7-10--------7h10-7-10---------------------8s12--10-----
2|----------8----------------8-------------10-12—--------------
3|----------0-7--------------0-7---------12-----12-------------
4|------------5----------------5-------12----------------------
5|-10-----------9--10------------9--10-------------------------
6|-------------------------------------------------------------


1|------10----8-10--------10---8---7h10-7-10-----7h10-7-10-----
2|------------------------------------------8-------------8----
3|------------------------------------------0-7-----------0-7--
4|-12-10---9---------12-10---9----------------5-------------5--
5|-10-10---10--------10-10---10----10------------10------------
6|-------------------------------------------------------------


1|----5-5---------------------18--------------------
2|--8--8------------------------------12armonico----
3|-------6------------14----------12ar--------------
4|-5----------12-14-15--15--------------------------
5|----------13------------14------------------------
6|--------------------------16--15------------------


1|----------------------------------------------
2|------3--------3---------3--------------------
3|--0—-0-0-0--0-0-0-0--0--0-0-0---0-0-----------
4|-------------------------------0-0------------
5|-----------------------------------5-3p-2-----
6|-3--3---3--2-2---2--0--0---0-------------5-—--


1|-------------------------------------------------
2|------3--------3---------3---------3-------------
3|--0—-0-0-0--0-0-0-0--0--0-0-0---0-0-0------------
4|-------------------------------0-0---0-----------
5|---------------------------------------0h2p0-----
6|-3--3---3--2-2---2--0--0---0-------------—-------


1|-------------------------------------------------
2|------3--------3---------3---------3-------------
3|--0—-0-0-0--0-0-0-0--0--0-0-0---0-0-0------------
4|-------------------------------0-0---0-----------
5|---------------------------------------0h2p0-----
6|-3--3---3--2-2---2--0--0---0-------------—-------
            Pido que no me miren bien...




Esta shida la version ojala les sirva tanto como ami
Dudas, quejas, sugerencias, consejos
regaños, mentadas XD esas aka --> kraken_x1@hotmail.com
Saludos desde Morelia,Michoacán, México
Este fichero es trabajo propio de su transcriptor y representa su interpretación personal de la canción. El material contenido en esta página es
para exclusivo uso privado, por lo que se prohibe su reproducción o retransmisión, así como su uso para fines comerciales.

© LaCuerda.net · Aviso Legal · Privacidad