Acordes de Guitarra » S »Sebastian Mendoza » Te extrañare (Tab)

Te extrañare
Sebastian Mendoza

Letras, Acordes y Tabs para Guitarra, Bajo y Ukulele

  •     B                       G#m      E                       F#
    e|---11-11-11-11-9----------------|---12-12-12-12------------------||
    B|--12-------------12-11-11-------|--12----------16-14-12-12-11-11-||
    G|-11-----------------------13-13-|-13-----------------------------||
    D|--------------------------------|--------------------------------||
    A|--------------------------------|--------------------------------||
    E|--------------------------------|--------------------------------||
    
    Ahora el teclado hace lo mismo, y la guitarra sube de tono
    (sobre la misma nota), quedaria asi:
    
         B                       G#m      E                        F#
    e|---14-14-14-14-------------------|---16-16-16-16-14----------------||
    B|--16-----------17-16-14-14-------|--17--------------17-16-16-14-14-||
    G|-16------------------------16-16-|-16------------------------------||
    D|---------------------------------|---------------------------------||
    A|---------------------------------|---------------------------------||
    E|---------------------------------|---------------------------------||
    
        B                    G#m
    
  •      D               A
    Hoy que no tengo tu cariño
           G                       Bm
    estoy solo llorando como un niño
         D               A
    te alejas y no te importa nada
           G                       Bm
    y pensar que contaba yo contigo.
    
         D               A
    Pero no, se que no volveras
           G                       Bm
    porque eres linda hoy te sobra el amor
         D               A
    porque tienes un juguete mas 
           G                       Bm
    sufriendo esta mañana sentiras dolor.
    
         D               A
    Pero no, se que no volveras
    
  • +
    ¡Colabora con nosotros!
    Envíanos tu versión de esta canción

Letra de Te extrañare
Hoy que no tengo tu cariño
estoy solo llorando como un niño
te alejas y no te importa nada
y pensar que contaba yo contigo.
Pero no, se que no volveras
porque eres linda hoy te sobra el amor
porque tienes un juguete mas
sufriendo esta mañana sentiras dolor.
Pero no, se que no volveras
porque eres linda hoy te sobra el amor
porque tienes un juguete mas
sufriendo esta mañana sentiras dolor
como yo.
Hoy que no tengo tu cariño
estoy solo llorando como un niño
te alejas y no te importa nada
y pensar que contaba yo contigo.
Pero no, se que no volveras
porque eres linda hoy te sobra el amor
porque tienes un juguete mas
sufriendo esta mañana sentiras dolor.
Pero no, se que no volveras
porque eres linda hoy te sobra el amor
porque tienes un juguete mas
sufriendo esta mañana sentiras dolor
como yo.
Te extrañare y llorare
porque te quize siempre te recordare
pero veras que un dia amaras
y todos tus caprichos juntos pagaras
te extrañare y llorare
porque te quize siempre te recordare
pero veras que un dia amaras
y todos tus caprichos juntos pagaras
pagaras por mentirosa
sufriras por caprichosa
pagaras por mentirosa
sufriras por caprichosa




[Te extrañare chords][Te extrañare cifra]
© LaCuerda.net · aviso legal · privacidad · es · en · pt · contacto
DINAMICO