Acordes de Guitarra » S »Sebastian Mendoza » La Luna y el Sol (Tab)

La Luna y el Sol
Sebastian Mendoza

  • Letra y Acordes
     D       G           Em             C
     ay, ay, ay porque lloro por vos y acaricio
                     Am           D
     tu pelo en las noches soñandote.
    
     D      G                 Em              C
     ay, ay, ay  la luna se quiere dormir y el sol
                  Am                  D
     estira sus rayos queriendo abrazarla....
         G
      para amarla. 
                       C                D            G
          si yo fuera sol y tu fueras luna yo te amaria
                 C                    D         G
      y cada eclipse de amor yo te haria solo mia
                   C                  D          G
      si yo fuera sol y yo fuera luna yo te amaria
                 C                    D        G
      y cada eclipse de amor yo te haria solo mia
    
    
  • Tablatura
       C Am C Am
    
           C                             Am
     e|----------------------------------------------|
     b|---8-8-----------8-8----------------------10--|
     g|-7-----9-9-9/7-7-----9-9-9/7--7-5-7-5---5-----|
     d|--------------------------------------7-------|
     a|----------------------------------------------|
     E|----------------------------------------------|
    
    
            F                                      G
     e|----------------------------------------------------------|
     b|----10-10---------------10-10---------------15-13-12---12-|
     g|-10-------10-10-10/9-10-------10-10-10/9--9----------7----|
     d|----------------------------------------------------------|
     a|----------------------------------------------------------|
     E|----------------------------------------------------------|
    
      Esta intro va por dos veces
    
  • +
    ¡Colabora con nosotros!
    Envíanos tu versión de esta canción

Letra de La Luna y el Sol
ay, ay, ay porque lloro por vos y acaricio
tu pelo en las noches soñandote.
ay, ay, ay la luna se quiere dormir y el sol
estira sus rayos queriendo abrazarla....
para amarla.
si yo fuera sol y tu fueras luna yo te amaria
y cada eclipse de amor yo te haria solo mia
si yo fuera sol y yo fuera luna yo te amaria
y cada eclipse de amor yo te haria solo mia
ay, ay, ay cuando te vi con el yo pense si tenia sentido
el segur viviendo. ay, ay,ay la luna se quiere dormir
y el sol estira sus rayos queriendo abrazarla...
para amarla
si yo fuera sol y tu fueras luna yo te amaria

y cada eclipse de amor yo te haria solo mia

si yo fuera sol y tu fueras luna yo te amaria
y cada eclipse de amor yo te haria solo mia
si yo fuera sol y tu.... mia
con esta cancion te podes levantar alguna piba (je)
los acordes son faciles,y siempre son los mismos
espero que les sirva , nos vemos...
aguante el seba mendoza



© LaCuerda.net · aviso legal · privacidad · contacto