Acordes de Guitarra » R »Rubén Blades » Juan Pachanga (Tab)

Juan Pachanga
Rubén Blades

  • Tab p/Bajo
    Ahora, una de las mejores canciones del Maestro
    Rubén Blades, que posee uno de los mejores arreglos
    jamás realizados en la historia de la salsa.
    
    
    Intro:
    
    G -----------------|-------------|
    D -3-3-3-3-3-3-----|-3-3-3-------|
    A --------------1--|--------3-2--|
    E -----------------|-------------|
    
    G --------8--|--------6---|---5----4---3---3--------|
    D -----------|------------|-3----3---3---3----6-3---|
    A -8-7-6-----|-6-5-4------|-------------------------|
    E -----------|------------|-------------------------|
    
    G -9-10(repetir rápidamente)--|
    D ----------------------------|
    A ----------------------------|
    E ----------------------------|
    
    Piano rhodes solo:
    
    G ----10-8-10-8-----------8-6-------------------5-3-5--3-3----|
    D -8-------------8-----6-------6-----------5-3-------------3--|
    A ------------------6-------------6--4-4-3--------------------|
    E ------------------------------------------------------------|
    
    G --------------------------------5-3--------|
    D ---3-1--8-6--------5-------5-
  • +
    ¡Colabora con nosotros!
    Envíanos tu versión de esta canción





© LaCuerda.net · aviso legal · privacidad · contacto