Tablatura para Guitarra de Rosario: Que Bonito
Conexión · Inscripción
Letras y Acordes
Pantalla Completa
Imprimir
Versión Texto
Añadir Favorito
Otras Versiones

Mostrar Diagramas
Desfile Automático
Manipular Acordes
Formato del Texto


Que Bonito(TAB)

Rosario

calidad:
rsio0022
AUTOR: Rosario  corregir
ALBUM: desconocido
Enviado por Richard
Aqui les mando algunas notas de la canción para que se escuche mejor
cuando la toquen...


Este es el riff que se escucha al principio de la canción:

e|-0-0---0--0-|
B|-----2---2--|


Este es el bajeo que se hace antes de que se comience la letra:

e|--------------|
B|--------------|
G|--------------|
D|-0/2--4/7-4-2-|
A|--------------|
E|--------------|


Esta es la adaptación del saxofón a la guitarra:

e|----------------------------------2/4-4-0---0-2------0-3-3/7-3-3/2/3-|
B|------------------3-0--------2--2---------2-----0--3-----------------|
G|------------2-4/6------2-3-4-----------------------------------------|
D|-2-0---0--4----------------------------------------------------------|
A|-----4---------------------------------------------------------------|
E|---------------------------------------------------------------------|
Este fichero es trabajo propio de su transcriptor y representa su interpretación personal de la canción. El material contenido en esta página es
para exclusivo uso privado, por lo que se prohibe su reproducción o retransmisión, así como su uso para fines comerciales.

© LaCuerda.net · Aviso Legal · Privacidad