Tablatura para Guitarra de Rocio Durcal: Como han pasado los años
Conexión · Inscripción
Letras y Acordes
Pantalla Completa
Imprimir
Versión Texto
Añadir Favorito
Otras Versiones

Mostrar Diagramas
Desfile Automático
Manipular Acordes
Formato del Texto


Como han pasado los años(TAB)

Rocio Durcal

calidad:
rdur0127
AUTOR: Rafael Ferro, Roberto Livi
ALBUM: Hay Amores Y Amores
Enviado por Miguel
Mi Aportacion no trata de modificar todas las versiones anterior
todas son muy buenas nada mas que he visto que ninguna de ellas
se anexa el requinto inicial de esta bella cancion, por lo cual
es la primera aportación de su servidor y espero sea de su agrado
solo hay que escuchar el ritmo para que la comprendan, es solo el
requinto inicial, y me gustaria si hay alguien que me pudiera ayudar
a sacar el requinto de la cancion de Si nos dejan de Jose Alfredo Jimenez



e|------------10-------------------8--------------
B|----8-10-13-----11/13-11-10-8-10----------------
G|-10---------------------------------------------
D|------------------------------------------------
A|------------------------------------------------
E|------------------------------------------------


e|------------------------------------------------
B|-11-10/11/10-8----8-10-11-10--------------------
G|---------------10-------------------------------
D|------------------------------------------------
A|------------------------------------------------
E|------------------------------------------------

Es solo el requinto incial lo de mas de la cacion no es necesario ponerlo
en virtud de que las aportaciones de los demas colaborades en uno de ellos
las notas son las precisas, espero y esta pequeña aportacion se un granito
mas de arena para esta hermosa cancion
Este fichero es trabajo propio de su transcriptor y representa su interpretación personal de la canción. El material contenido en esta página es
para exclusivo uso privado, por lo que se prohibe su reproducción o retransmisión, así como su uso para fines comerciales.


© LaCuerda.net · Aviso Legal · Privacidad