Acordes de Guitarra » R »Riff » Larga Distancia (Tab)

Larga Distancia
Riff

Letras, Acordes y Tabs para Guitarra, Bajo y Ukulele

  • Riff 1
    
    E-------------------------
    B-------------------------
    G-------------------------
    D-----------------7-7-7-5-
    A---7--7--7-7--7--5-5-5-3-
    E---5--5--5-5--5----------
    
    Riff 2
    
    E-----------------------------------------------------------------
    B-----------------------------------------------------------------
    G-----------------------------------------------------------------
    D-----------------7-7-7-5-----------------------------------------
    A---7--7--7-7--7--5-5-5-3--5--5--5-5--5-5-6-7--7--7-7--7---5---5--
    E---5--5--5-5--5-----------3--3--3-3--3-3-4-5--5--5-5--5-0-3-0-3--
    
    Riff 3
    E--------------------------------
    B--------------------------------
    G--------------------------------
    D---------------11119-9-11-------
    A---9--9-9-9--9-9-9-7-7-9--9-----
    E---7--7-7-7--7------------7-----
    
    
    
    Riff 1 x2
    Vengo remando, de larga distancia,
    Riff 2
    Nadie me espera llegar, no tengo esperanza;
    Riff 1 x2
    Solo me banco, contra la corriente,
    Riff 2
    Todos intentan zafar, es elocuente.
    
    Riff 3 x3
     Por qu
  •      “Vengo remando…            …en larga distancia…     \
    G|----------------------------------------------------   |
    D|----------------------------------------------------   |
    A|-----------5-5--5--5-5-5-------------5-5--5--5-5-5--   |
    E|-5---5-5-------------------5---5-5------------------   |
                                                             | Parte
           …nadie me espera llegar, no tengo esperanza…      |   A
    G|------------------------------------------------|      |
    D|------------------------------------------------|      |
    A|------------------------------------------------|      |
    E|-3---3-3---3-3---3-3---5-5---5-5---5-5---5-5---5|      |
                                                             /
    
    Repite parte A. Despues
    
            (3 veces)
    …por que siempre debo…     …de toda esa gente
    G|------------------------|------------------------
    D|------------------------|------------------------ Parte
    A|-----------7-7---7-7----|------------------------   B
    E|-7---7-7-------
  • +
    ¡Colabora con nosotros!
    Envíanos tu versión de esta canción






[Larga Distancia chords][Larga Distancia cifra]
© LaCuerda.net · aviso legal · privacidad · es · en · pt · contacto