Acordes de Guitarra » R »Riddim » Las Rocas (Tab)

Las Rocas
Riddim

Letras, Acordes y Tabs para Guitarra, Bajo y Ukulele

  • e|--------------------------------------------
    B|------7h8-7h8-7h8-7h8-7h8-7h8----v5--
    G|--------------------------------------------
    D|--------------------------------------------
    A|--------------------------------------------
    E|--------------------------------------------
    
    e|--------------------------------------------
    B|------7h8-7h8-7h8-7h8-7h8-7h8----v10-
    G|--------------------------------------------
    D|--------------------------------------------
    A|--------------------------------------------
    E|--------------------------------------------
    
    e|--------------------------------------------
    B|------------------5-7h8h7-----------------
    G|-------------5-7----------------------------
    D|--------5-7---------------------------------
    A|-----7--------------------------------------
    E|--------------------------------------------
    
  • +
    ¡Colabora con nosotros!
    Envíanos tu versión de esta canción

Letra de Las Rocas
y durante todo el tema hace: MIm-RE (2 veces por acorde)
Sube a la roca de la unidad
Y busca quien te quiera acompañar
Y mira el mundo que abajo está
Perdido con tanta modernidad
Sube a la roca de la verdad
Si estas despierto la encontrarás
Y mira el mundo que abajo está
Cada vez mas difícil de habitar
Sube a la roca de la realidad
No creas que es tan fácil escapar
De este sistema que oprime más.
Noche a noche declara sabiduría.
Sube a la roca de la igualdad
Que no te quiten la identidad
La paz del cielo ya llegará
Pero en la tierra también queremos paz
Vive y elige bien
La roca en donde estar de pie
Vive y elige bien
La roca en donde estar de pie
Sube a la roca de la unidad
Y busca quien te quiera acompañar
Sube a la roca de la verdad
Si estas despierto la encontrarás
Sube a la roca de la realidad
No creas que es tan fácil escapar
Sube a la roca de la igualdad
Que no te quiten la identidad
Vive y elige bien
La roca en donde estar de pie
Vive y elige bien
La roca en donde estar de pie




[Las Rocas chords][Las Rocas cifra]
© LaCuerda.net · aviso legal · privacidad · es · en · pt · contacto
DINAMICO