Acordes de Guitarra » R »Riddim » La Mascara (Tab)

La Mascara
Riddim

Letras, Acordes y Tabs para Guitarra, Bajo y Ukulele

  • E
    si te juzgan por la imagen
    A              E           A
    debo avistarte:que aca todoasi
    E                  A
    muchos piensan que tu ropa es lo que importa
    A            E (sigue asi todo el tema)
    para poder vivr
    
    y figurar con disfraces que no van con vos
    no te hace un tipo fuerte
    te hace un tipo comun
    diferenciate de todos en tu interior
    podras ver vida a tu alrededor
    
    el fruto es mas dulce en tu interior
    y amargo en la cascara
    es hora que seas lo que quiereas ser y te quites la mascara
    el fruto es mas dulce en tu interior
    y amargo en la cascara
    
  • Am | Am | G | Am
    
    INTRO:
    
    e |-----------------------------------------|
    B |----9-7-9---9-7-9--7-7-7-5-5-5-4-5-4-2---|
    G |--7-------7------------------------------|
    D |-----------------------------------------|
    A |-----------------------------------------|
    E |-----------------------------------------|
    
    e |-----------------------------------------|
    B |----9-7-9---9-7-9--7-7-7-5-5-5-9---------|
    G |--7-------7------------------------------|
    D |-----------------------------------------|
    A |-----------------------------------------|
    E |-----------------------------------------|
    
    
    Am | Am | G | Am
    
  • +
    ¡Colabora con nosotros!
    Envíanos tu versión de esta canción

Letra de La Mascara
si te juzgan por la imagen
debo avistarte:que aca todoasi
muchos piensan que tu ropa es lo que importa
para poder vivr
y figurar con disfraces que no van con vos
no te hace un tipo fuerte
te hace un tipo comun
diferenciate de todos en tu interior
podras ver vida a tu alrededor
el fruto es mas dulce en tu interior
y amargo en la cascara
es hora que seas lo que quiereas ser y te quites la mascara
el fruto es mas dulce en tu interior
y amargo en la cascara
es hora que seas lo que quiereas ser y te quites la mascara
y si ves que el sistema no perdona
y que va de mal en peor
no dejes que el mundo te abandona
busca la vida en tu interior
y figurar con disfraces que no van con vos
no te hace un tipo fuerte
te hace un tipo comun
diferenciate de todos en tu interior
podras ver vida a tu alrededor
el fruto es mas dulce en tu interior
y amargo en la cascara
es hora que seas lo que quiereas ser y te quites la mascara
el fruto es mas dulce en tu interior
y amargo en la cascara
es hora que seas lo que quiereas ser y te quites la mascara
por dudas o consulas www.italreggae.tk.....o chorta_60@hotmail.com




[La Mascara chords][La Mascara cifra]
© LaCuerda.net · aviso legal · privacidad · es · en · pt · contacto
DINAMICO