Tablatura para Guitarra de Ricardo Montaner: El poder de tu amor
Conexión · Inscripción
Letras y Acordes
Pantalla Completa
Imprimir
Versión Texto
Añadir Favorito
Otras Versiones

Mostrar Diagramas
Desfile Automático
Manipular Acordes
Formato del Texto


El poder de tu amor(TAB)

Ricardo Montaner

calidad:
rmon0112
AUTOR: Ricardo Montaner, Bebu Silvetti
ALBUM: Con La London Metropolitan Orchestra
Enviado por Sergio
Se escucha muy bien que en ves de tocar el coro con acordes se toque con requinto y ahi les va:

El Poder...        De Tu Amor...
|-0-1-3--|        |-0-1-3--|
|--------|        |--------|        
|--------|        |--------|        
|--------|        |--------|        
|--------|        |--------|        
|--------|        |--------|    

Que me lleva a lo profundo como un globo hasta el cielo..
|-0-1-3--1-1-1-1-1-0-0-0---------|        
|------------------------3-3-3---|
|--------------------------------|
|--------------------------------|
|--------------------------------|
|--------------------------------|

El Poder...        De Tu Amor...
              (Manteniendo el dedo en el 3er traste)
|-0-1-3--|        |-/5-0-3--|
|--------|        |----------|        
|--------|        |----------|        
|--------|        |----------|        
|--------|        |----------|        
|--------|        |----------|

ME sumerge a las alturas y me corta la respiracion..
|-0-1-3--1-1-1-1-1-0-0-0-------------|        
|------------------------3-3-3-3-----|
|--------------------------------4/5-|
|------------------------------------|
|------------------------------------|
|------------------------------------|

Yo te juro, No miento

|------------------------------------|
|0-4-2--0--4-2-0---------------------|
|------------------------------------|
|------------------------------------|
|------------------------------------|
|------------------------------------|

Que tu amor tiene ese poder
|------------------------------------|
|---0-1-3-4-3--1-3-------------------|
|-2----------------------------------|
|------------------------------------|
|------------------------------------|
|------------------------------------|

El Resto va de la siguiente manera:

C G Tengo que reconocer
Am Que me sorprendió el amor
F C Me enamoré de sed
G Y tu eres el agua.
C G Desnudo al aire libre
Am Estaba mi corazón
F C Hablando solito
G Con su corazón. ******** (((En esta parte entra el Coro con requinto))) El Poder, De tu amor Que me lleva a lo profundo como un globo hasta el cielo el Poder, de tu amor ME sumerge a las alturas y me corta la respiracion yo te juro, no miento que tu amor tiene ese poder. ********
C G Decir que te amo hasta la luna
Am Eso no bastará
F A menos que haya otra luna
C G en la eternidad.
C G Los seres solo son humanos
Am si saben justificar
F que son más humanos
C G si pueden amar. ******** (((En esta parte entra el Coro con requinto))) El Poder, De tu amor Que me lleva a lo profundo como un globo hasta el cielo el Poder, de tu amor ME sumerge a las alturas y me corta la respiracion yo te juro, no miento que tu amor tiene ese poder. ********
Am De nube en nube va el amor
G De rama en rama va el amor
F De beso en beso va el amor
G
A LA cama. ******** (((En esta parte entra el Coro con requinto))) El Poder, De tu amor Que me lleva a lo profundo como un globo hasta el cielo el Poder, de tu amor ME sumerge a las alturas y me corta la respiracion yo te juro, no miento que tu amor tiene ese poder. ******** Cualquier correcion escribanme.
Este fichero es trabajo propio de su transcriptor y representa su interpretación personal de la canción. El material contenido en esta página es
para exclusivo uso privado, por lo que se prohibe su reproducción o retransmisión, así como su uso para fines comerciales.

© LaCuerda.net · Aviso Legal · Privacidad