Acordes de Guitarra » R »Resistencia Suburbana » Si me dejas (Tab)

Si me dejas
Resistencia Suburbana

Letras, Acordes y Tabs para Guitarra, Bajo y Ukulele

  • Gm-Gm X2 Gm-Gm-Fm-Dm X1
    
    Cm-Cm-Cm-Cm-Cm X1
    
    Dm-Dm-Dm-Dm-Dm X1
    
    Gm Fm X2
    
     Gm                      Fm                   Gm        Fm
    aveses no se puede con palabras definir la situacion
     Gm                    Fm                   Gm         Fm
    siento el frio en el alma me hace falta tu calor
     Gm                     Fm                     Gm      Fm
    y como no hay palabras siento muchas ganas de gritar
     Gm    Fm   Gm    Fm
    hoyyyyy si me dejas
     Gm    Fm   Gm    Fm
    hoyyyyy si me dejas
    
     Gm                      Fm                   Gm        Fm
    
  • INTRO
    
    G--------------------------------------------
    D--55---55---55-3----------------------------
    A-----------------5--33333---55555-----------
    E--------------------------------------------
    
    VERSO
    
    G----------------3---------------------------5-------------
    D----3-5---3-5-----5-3-----------3-5---3-5-----7-5-3-------
    A--5-----5-------------5-------5-----5---------------------
    E----------------------------------------------------------
    
    PARTE INSTRUMENTAL
    
    G--6------6-------5----------
    D----8-5----5-8-----7-5-8----  x4
    A----------------------------
    E----------------------------
    
    
    G----------------------------/-------------------------
    D---------------------------/-------------------------- x2
    A-5H-10-1010101010--88-10-/-5H-10-1010101010--8-10-----
    E-----------------10------/-----------------10---------
    
    G---------------------------------
    D----3-5---3-5----------3-5-------  x2
    A--5-----5------------5-----------
    E---------------------------------
    
      (ENGANCHE)
    
    G------------
    D------------
  • +
    ¡Colabora con nosotros!
    Envíanos tu versión de esta canción

Letra de Si me dejas
aveses no se puede con palabras definir la situacion
siento el frio en el alma me hace falta tu calor
y como no hay palabras siento muchas ganas de gritar
hoyyyyy si me dejas
hoyyyyy si me dejas
pero en cambio yo guardo en silencio sin emitir mis quejas
obserbando parado en la lluvia como tu te alejas...
hoyyyyy si me dejas
hoyyyyy si me dejas
este es el puente:




[Si me dejas chords][Si me dejas cifra]
© LaCuerda.net · aviso legal · privacidad · es · en · pt · contacto
DINAMICO