Acordes de Guitarra » R »Resistencia Suburbana » No te calles (Tab)

No te calles
Resistencia Suburbana

Letras, Acordes y Tabs para Guitarra, Bajo y Ukulele

  • Intro: LAm - FA - SOL - MI
    
    
          LAm FA
    No te calles
     SOL                 MI
    Que yo quiero oir tu voz
          LAm FA
    No te calles
     SOL                 MI
    Que yo quiero oir tu voz
    
    
            LAm
    No te calles
        FA               SOL
    Que tu voz se haga un grito
     MI      LAm
    Y que ese grito
          FA         SOL
    
  • Intro: LAm - FA - SOL - MI
    E-------------------------------------------------------------||
    B---17-15(^)-------17-15(^)----17-15(^)--------------------||
    G-----------17-14----------17----------17-14--14--------------|| X2
    D-----------------------------------------------17-15---------||
    A----------------------------------------------------17-15-14-||
    E-------------------------------------------------------------||
    
    No te calles
    Que yo quiero oír tu voz
    No te calles
    Que yo quiero oír tu voz
    
    No te calles
    Que tu voz se haga un grito
    Y que ese grito
    Se esparza al infinito
    Porque el silencio
    Es el peor enemigo
    Del hombre de los pueblos
    
  • |------------------------------------------------|
    |------------------------------------------------|
    |-----7-7------5-5------3-3---7--7-5-0-----------|
    |--5------5-3------3-1------1--------------------|
    
    |------------------------------------------------|
    |------------------------------------------------|
    |-----7-7------5-5------3-3---7--7-5-0-0---------|
    |--5------5-3------3-1------1--------------------|
    
    |------------------------------------------------|
    |-----------5------------------------------------|
    |--5-7--5-7---7--5-------------------------------|x3
    |------------------7-5-0-------------------------|
    
    |------------------------------------------------|
    |-----------5------------------------------------|
    |--5-7--5-7---7--5-------------------------------|
    |------------------7-5-0-------------------------| las ultimas 3
                                                       a otra velocidad
    |------------------------------------------------|
    |---------------------------------------------
  • intro y estribillos:
    
    G|----------------------------------------|
    D|---2-2----------------------------------|
    A|0-------0----3-3-------5-5-----7--7-5---|
    E|----------1-------1-3-------3---------5-|
    
    versos:
    
    G|-------------0------------|
    D|----2-3--2-3----3--2--0---|
    A|0-----------------------3-|
    E|--------------------------|
    
    Pura vida!
    alfred-rodriguez@hotmail.com
  • +
    ¡Colabora con nosotros!
    Envíanos tu versión de esta canción

Letra de No te calles
No te calles
Que yo quiero oir tu voz
No te calles
Que yo quiero oir tu voz
No te calles
Que tu voz se haga un grito
Y que ese grito
Se esparza al infinito
Porque el silencio
Es el peor enemigo
Del hombre de los pueblos
Que se hallan oprimidos
No te pares
Yo camino junto a vos
No te pares
Yo camino junto a vos
No te pares
Tenemos un camino
Toma mi mano hermano
Recórrelo conmigo
Millones de personas
Sabrán de este camino
Si el pueblo está unido
Ya no será oprimido
No te canses
Tu dolor es mi dolor
No te canses
Tu dolor es mi dolor
No te canses
Que Dios está contigo
Mantente siempre firme
Y tu serás testigo
Verás que el opresor
Recibe su castigo
Si el pueblo está unido
Ya no será oprimido
No te canses
Que Dios está contigo
Mantente siempre firme
Y tu serás testigo
Verás que el opresor
Recibe su castigo
Si el pueblo está unido
Ya no será oprimido
No te calles
Que yo quiero oir tu voz
No te pares
Yo camino junto a vos
No te canses
Tu dolor es mi dolor
No te calles
Que yo quiero oir tu voz
No te pares
Yo camino junto a vos
No te canses
Tu dolor es mi dolor




[No te calles chords][No te calles cifra]
© LaCuerda.net · aviso legal · privacidad · es · en · pt · contacto