Acordes de Guitarra » R »Rescate » Llena de sol (Tab)

Llena de sol
Rescate

  • Letra y Acordes
    SOL
        Sobran las palabras, sobran las espinas,
                        FA             DO
    Cuando son tus ojos llenos de sol, llenos de sol.
    SOL
        Puede ser de noche, puede haber corridas.
                        FA             DO
    Pero están tus ojos llenos de sol, llenos de sol.
    RE                   LAm
       Cuna de campeones,   que no tienen gloria.
    RE                  LAm        DO           SOL
       Por tener razones    que no saben donde ir.
    
    SOL                                           FA
    Esta vez esa voz que me nombra, esta vez no siento el dolor.
    SOL                            FA            DO
    Esta vez tu mirada me asombra. Llena de sol. Llena de sol.
    SOL                                           FA
    Esta vez esa voz que me nombra, esta vez no siento el dolor.
    SOL                             FA           DO            SOL
    
  • Tablatura
    e-----------------------------------------------------------
    a-----------------------------------------------------------
    d---------------5-3-5------------------5-3-5----------------
    g-4-5-7-5-4-5-4----------4-5-7-5-4-5-4-------4-5-7-------7-5
    b--------------------------------------------------8-6-5----
    e-----------------------------------------------------------
    
    e-----------------------------------------------------------
    a-----------------------------------------------------------
    d---------------5-3-5---------------------------------------
    g-4-5-7-5-4-5-4-------4-5-7-------7-5-----------------------
    b---------------------------8-6-5---------------------------
    e-----------------------------------------------------------
    
    SOL
        Sobran las palabras, sobran las espinas,
                        FA             DO
    Cuando son tus ojos llenos de sol, llenos de sol.
    SOL
        Puede ser de noche, puede haber corridas.
    
  • +
    ¡Colabora con nosotros!
    Envíanos tu versión de esta canción

Letra de Llena de sol
Sobran las palabras, sobran las espinas,
Cuando son tus ojos llenos de sol, llenos de sol.
Puede ser de noche, puede haber corridas.
Pero están tus ojos llenos de sol, llenos de sol.
Cuna de campeones, que no tienen gloria.
Por tener razones que no saben donde ir.
Esta vez esa voz que me nombra, esta vez no siento el dolor.
Esta vez tu mirada me asombra. Llena de sol. Llena de sol.
Esta vez esa voz que me nombra, esta vez no siento el dolor.
Esta vez tu mirada me asombra. Llena de sol. Quiero tu amor.
Fue una noche larga, más de una semana.
Y encontré tus ojos llenos de sol, llenos de sol.
Cuna de campeones, que no tienen gloria.
Por tener razones de cambiar la historia.
Por perder cordura y saber a donde ir.
Esta vez esa voz que me nombra, Esta vez no siento el dolor.
Esta vez tu mirada me asombra. Llena de sol. Llena de sol.
Esta vez esa voz que me nombra, Esta vez no siento el dolor.
Esta vez tu mirada me asombra. Quiero tu amor. Lleno de Sol.



© LaCuerda.net · aviso legal · privacidad · contacto