Tablatura para Bajo de La Raíz: A la sombra de la sierra
Conexión · Inscripción
Letras y Acordes
Pantalla Completa
Imprimir
Versión Texto
Añadir Favorito
Otras Versiones

Mostrar Diagramas
Desfile Automático
Formato del Texto


A la sombra de la sierra(BAJ)

La Raíz

calidad:
rzxx0122
AUTOR: La Raíz
ALBUM: Así en el Cielo como en la Selva (2013)
Enviado por Adrishan
Motivo con vientos
G--------------------------------------
D--------------------------------------
A---7------7-7-5-3-2-------------------
E------0-------------------------------

Estrofa
G-----------------------------------------------------
D--------------------------------------------5--------
A-----2-5--3------5-7-------7--------6-7----7-7-5-6-7-
E-0-3--------3--7------7-8----8-7--7------0-----------

en la segunda vuelta termina con el “motivo con vientos”

Puente
G---------------------------------------------------------
D-----------------------------------------------------5-5-
A-----5-7-----------------7-7-8-7----7---------6-7-7—--7-7
E-0-0-----7-7-8-7-5-5-5-8--------8-8---8-7-6-7----0-0-----

Estribillo
G-------------------------------------------------------
D-------------------------------------------------------
A-----2-5--3------5-7-------7--------6-7----------------
E-0-3--------3--7------7-8----8-7--7------7-5-3---------

en la segunda vuelta termina con el “motivo con vientos”

Final estribillo para solo guitarra
G----------------------------------------------
D--7-8-7-5----7-8-7-5--------------------------
A----------7----------7---0-----5----9---------
E----------------------------------------------

Segunda parte solo guitarra
G-------------------------------------------------
D---------------------------------5-7-9-10-9------
A-------5-7----------------9----7-----------------
E--3--7--------15^^^^^8--7---0--------------------

Parce C
G-------------------------------------------------
D-------------5-----------------------------------
A-------5-7-----7-5-7-7----7------9---------------
E--3--7------------------8---8--7---0-------------

Levántate...
G-------------------------------------------------
D-------------------------------------------------
A--------------77777-55555-33333-22222------------
E--33333-77777-------------------------00000------

Último estribillo
G-------------------------------------------------
D-------------------------------------------------
A-77777-55555-------------------------------------
E-------------33333-55555-88888-77777-00000-------

Final
G-------------------------------------------------
D-------------------------------------------------
A-------------------------------------------------
E--0-2-3-5-8-7--0---------------------------------
Este fichero es trabajo propio de su transcriptor y representa su interpretación personal de la canción. El material contenido en esta página es
para exclusivo uso privado, por lo que se prohibe su reproducción o retransmisión, así como su uso para fines comerciales.

© LaCuerda.net · Aviso Legal · Privacidad