Acordes de Guitarra » R »Rafaga » Amándonos (Tab)

Amándonos
Rafaga

Letras, Acordes y Tabs para Guitarra, Bajo y Ukulele

  • Los acordes son lam solM/faM doM rem/miM (guitarra limpia)
         Riftt 1                   Riftt 2               Riftt 3
    e------------------------|------------------|         |------------------------||
    B-------------------6-5--|------------------| repetir |------------------------||
    G-----5--------4-5-------|----5-------------|         |----5-------------------||
    D---7---7--5-5-----------|--7---7--5---5--3-| riftt 1 |--7---7--5-5-6-6-7-))))-||
    A------------------------|-----------5------|         |------------------------||
    E------------------------|------------------|         |------------------------||
                    
    Parte teclado (los mismos acordes de arriba)
    Después del riftt 4 los acordes cambian (canto) y va así lam doM solM miM
     distorsión Riftt 4
    e--12-10--------------------------|
    B--------13-12-10-----------------|
    G-----------------13-13-------13--|
    D-----------------------12-12-----|
    A---------------------------------|
    E-------------------------------
  • +
    ¡Colabora con nosotros!
    Envíanos tu versión de esta canción






[Amándonos chords][Amándonos cifra]
© LaCuerda.net · aviso legal · privacidad · es · en · pt · contacto
DINAMICO