Tablatura para Guitarra de Radio Futura: Escuela de Calor
Conexión · Inscripción
Letras y Acordes
Pantalla Completa
Imprimir
Versión Texto
Añadir Favorito
Otras Versiones

Mostrar Diagramas
Desfile Automático
Manipular Acordes
Formato del Texto


Escuela de Calor(TAB)

Radio Futura

calidad:
rfut0141
AUTOR: Uez
ALBUM: La Ley
Enviado por Daniel
intro

Guitarra 1

Riff 1                            X3  Riff 2
e|-------------------------------|--|-------------------------------|
B|-7/8-7-5-----------------------|--|-7/8-7-5-----------------------|
G|---------7-5h6------------6h7-6|X3|---------7-5h6-----------------|
D|---------------7------5-7------|--|---------------7------5-7------|
A|-----------------5--7----------|--|-----------------5--7-----7-4~-|
E|-------------------------------|--|-------------------------------|

Guitarra 2 (entra al comienzo del tercer riff 1)

   Estilo funky

e|-7-7-7-7----9 -9 -9 -9--------------------------------------------|
B|-8-8-8-8----10-10-10-10-------------------------------------------|
G|-7-7-7-7----9 -9 -9 -9--------------------------------------------|
D|(9)--------(11)---------------------------------------------------|
A|------------------------------------------------------------------|
E|------------------------------------------------------------------|

verso 1 Guitarra 1  (la guitarra 2 sigue con su ritmo)

e|-----------------------------------------------------------------|
B|-----------------------------------------------------------------|
G|-----------------------------------------------------------------|
D|-55-44-55-44-55-44-55-44-77777-000-77777-------------------------|
A|-----------------------------------------------------------------|
E|-----------------------------------------555---------------------|
   Ar--de la calle   al    sol de poniente, hay
   tribus ocu---ltas       cerca del rí---o
   esperando que           caiga la no----che.
   Hace falta valor,       hace falta valor,
e|-------------------------|-------------------------------|
B|-------------------------|-------------------------------|
G|-------------------------|-------6-7-8-------------------|
D|-55-44-55-44-55-44-55-44-|-7--9--------------------------|
A|-------------------------|-------------------------------|
E|-------------------------|-------------------------------|
ven A LA escuela de ca-lor. Riff 1 y Riff 2 verso 2: Guitarra 1 igual que en verso 1. Guitarra 2 hace arpegios Sé lo que tengo que ha-- cer para conseguir que tú estés loco por mí.
Ven A MI lado y com-- prueba el tejido, mas cuida esas manos, chi-- co. (guitarra 2 vuelve al rif funky) Esa paloma sobrevuela el peligro, aprendió en una escuela de ca-lor. Riff 1 y Riff 2 Verso 3: igual que el verso 2 Vas por ahí sin prestar atención y cae sobre ti una maldi ción. En las piscina pri- vadas las chicas des- nudan sus cuerpos al sol. No des un mal paso, no des un mal paso, esto es una escuela de ca-lor. Riff 1 x2 Riff 1 Deja que me acerque, deja que me acerque a ti, Riff2 quiero vivir del aire, quiero salir de aquí. Verso 1 (variación) e|-----------------------------------------------------------------| B|-----------------------------------------------------------------| G|-----------------------------------------------------------------| D|-55-44-55-44-55-44-55-44-77777-000-77777-------------------------| A|-----------------------------------------------------------------| E|-----------------------------------------555---------------------| Ar--de la calle al sol de poniente, hay tribus ocu---ltas cerca del rí---o. Esperando que caiga la no----che estoy. Hace falta valor, hace falta valor, e|-------------------------|-------------------------------| B|-------------------------|-------------------------------| G|-------------------------|-------6-7-8-------------------| D|-55-44-55-44-55-44-55-44-|-7--9--------------------------| A|-------------------------|-------------------------------| E|-------------------------|-------------------------------|
ven A LA escuela de ca-lor. Riff 1 x4 Riff 1 x3 Riff 2 Turururu tu tu Tururu tu tu tu Turururu tu tu Tururu tu tu tu Solo X4 e|--------------------------------| B|--------------------------------| G|--------------------------------| D|--------3-----------------------| A|----2-5---5-4-5-0-0-3-4---------| E|-3~---------------------0-2-----| e|--------------------------------| B|--------------------------------| G|---------------------------1>9--| D|--------3-----------------------| A|----2-5---5-4-5-0---------------| E|-3~---------------------0-------| Riff 1 x3 e|---------------------9--9--9--9-----9--9--9--9---| B|-7/8-7-5-------------10-10-10-10----10-10-10-10--| G|---------7-5h6-------9--9--9--9-----9--9--9--9---| D|---------------7---------------------------------| A|-------------------------------------------------| E|-------------------------------------------------|
Este fichero es trabajo propio de su transcriptor y representa su interpretación personal de la canción. El material contenido en esta página es
para exclusivo uso privado, por lo que se prohibe su reproducción o retransmisión, así como su uso para fines comerciales.

© LaCuerda.net · Aviso Legal · Privacidad