Acordes de Guitarra » Q »Quilapayun » Patron (Tab)
  • Letra y Acordes
    FA#m
    Patrón,
                      SIm
    esa sombra que tirita tras sus reses,
          FA#m      
    huella y arados, comiendo a veces
    RE
    patrón,
    SIm              DO#
    por sus intereses
                FA#m
    ahí va su peón.
    
    
    Patrón,
    esa sombra que levanta sus galpones
    sudor trenzado con otros peones
    patrón, por sus ambiciones
    ahí va su peón
    patrón.
    
  • Tablatura
    e-12-------12-------12-|-10-------10-------10-|
    B----12-------12-------|----10-------10-------|
    G-11----11-------11----|-10----10-------10----|
    D----------------------|----------------------|
    A----------------------|----------------------|
    E----------------------|----------------------|
    
    e-9------9------9-9------9------9-|-7-----7-----7-10-------10-------10-|
    B---10-----10-------10-----10-----|---7-----7--------10-------10-------|
    G-9----9------9---9----9------9---|-7---7-----7---10----10-------10----|
    D---------------------------------|------------------------------------|
    A---------------------------------|------------------------------------|
    E---------------------------------|------------------------------------|
    
    e-9------9------9-9------9------9-|-12-------12-------12-|
    B---10-----10-------10-----10-----|----12-------12-------|
    G-9----9------9---9----9------9---|-11----11-------11----|
    D---------------------------------|----------------------|
    A---------------------------------|----------------------|
    E---------------------------------|----------------------|
    
  • +
    ¡Colabora con nosotros!
    Envíanos tu versión de esta canción

Letra de Patron
Patrón,
esa sombra que tirita tras sus reses,
huella y arados, comiendo a veces
patrón,
por sus intereses
ahí va su peón.
Patrón,
esa sombra que levanta sus galpones
sudor trenzado con otros peones
patrón, por sus ambiciones
ahí va su peón
patrón.
Patrón,
esa sombra carne al sol que le rotura
con sueldo enano, su tierra oscura
patrón, y que usted disfruta
ahí va su peón
Patrón,
esa sombra como un nuevo Cristo que anda
piedra en el pecho, cruz en la espalda
patrón,
y tosiendo rabia
ahí va su peón
patrón.
Patrón,
una sombra y otra sombra hacen tormenta
y el vendaval no tiene rienda
patrón,
no hay quien lo detenga
ahí va su peón.
Patrón,
si esa sombra en luz estalla y ve que avanza
como una aurora en su garganta
patrón, se le vuelve daga
ese es su peón
patrón.
las notas que aparecen en la primera estrofa
se repiten en toda la cancion...ojala les sirvan
las notas.



© LaCuerda.net · aviso legal · privacidad · contacto
DINAMICO