Tablatura para Bajo de los Prisioneros: Jugar A La Guerra
Conexión · Inscripción
Letras y Acordes
Pantalla Completa
Imprimir
Versión Texto
Añadir Favorito
Otras Versiones

Mostrar Diagramas
Desfile Automático
Formato del Texto


los Prisioneros
Jugar A La Guerra(BAJ)
calidad:
pris0142
AUTOR: Jorge González
ALBUM: En el Estadio Nacional
Enviado por Esteban
Otro tema pasable de este álbum.
Ahí lo tienen.
a)|-------------------------|
  |-------------------------|
  |-------------------------| x 4 u 8 veces
  |-1-1-1111-1--111---------|

  |-----------------------------|
  |-3-3-33-2-2-22-1-1-11-0-0-00-|
  |-----------------------------|
  |-----------------------------|

Parecen niños en edad escolar
|------------------------------|
|------------------------------|
|-4-4-44-5-4-5-----------------|
|--------------1-1-1111-0h1-11-|

A jugar.....
b)|-------0-2-----|--------------|
  |-----2---------|--------------|
  |-3-3-------3-3-|----0-3-5-----|
  |---------------|-1-1------1-1-|
       x2           x2

a)Excursion a la frontera
  divertidas balaceras
  son solo niños en edad escolar...
(Se repite a en la sgte. estrofa)

b)A jugar....

c)Oh o oh ven a jugar a la guerra
|-----------------------------------|------------
|-----------------------------------|------------  
|-----------------------------------|--------3-3-
|-3-3-3-3333-3-3-6-8-8-8-8888--10-8-|-1-11-11----
                                           x2*
(Variación sólo en estos dos versos)
Mi país es más valiente.....
|------------------------------------|
|--------1-111-1-1-1s/---------------|
|-3-3-33---------------1-111-1-------|
|------------------------------------|
(El resto sigue igual)

a)Aún existen quien sabe porque
  orgullosos quien sabe de que...

b)De jugar...
(Variación)
c)*|-------------|------------|
   |-------------|------------|
   |---------3-3-|--------6-6-|
   |-1-11-11-----|-1-11-11----|

c)Ven a jugaaaar....

Ven a jugaaaaaar aaaaaa laaaaaaa
|-----------------------------------|
|-----------------------------------|
|-4-4-----4----4---5-5------5---5---|
|-----4-4----4---4-----5-5----5---5-|

d)|-----------------------------------------------------|
  |-----------------------------------------------------|
  |-10-10-10-10-9-9-9-9-8-8-8-8-7-7-7-7-6-6-6-6-5-5-5-5-|x2
  |-----------------------------------------------------|

e)|----------------|
  |----------------|
  |-4-4-4-4h6-6-6--|x4
  |----------------|
d)Ya parten los heroes patrios
  firmes y gallardos...

e)Huyamos todos a los basurales...

c)(Con la variación)


FIN
Este fichero es trabajo propio de su transcriptor y representa su interpretación personal de la canción. El material contenido en esta página es
para exclusivo uso privado, por lo que se prohibe su reproducción o retransmisión, así como su uso para fines comerciales.
© LaCuerda.net · Aviso Legal · Privacidad