Tablatura para Bajo de los Prisioneros: Independencia Cultural
Conexión · Inscripción
Letras y Acordes
Pantalla Completa
Imprimir
Versión Texto
Añadir Favorito
Otras Versiones

Mostrar Diagramas
Desfile Automático
Formato del Texto


Independencia Cultural(BAJ)

los Prisioneros

calidad:
pris0133
AUTOR: Jorge Gonzalez
ALBUM: Pateando Piedras (1985)
Enviado por Guillermo
Este es un temazo.....me parce bien.

Intro:Bajo_:
1---------------------------/
2---------------------------/
3----------2-2--7-7-7-------/
4-5-5--1-1------------------/

A)
El momento a llegado de hacernos a un lado
1------------------------------/
2------------------------------/
3------------------------------/
4--5-5-5--1--1-1---5-5-5-1-1-1--/

Jugando juegos de otros nunca vamos a campeonar
1----------------------------------/
2----------------------------------/
3--2-2-2-3-3-3-3-------7-7-7-------/
4----------------------------------/

Tu y yo tenemos buen gusto, nada nos puede dar susto
1-----------------------------------/
2-----------------------------------/
3-----------------------------------/
4--5-5-5--1--1-1-------5-5-5-1-1-1--/

Lo de afuera, afuera, ocupemos nuestro pais.
1----------------------------------/
2----------------------------------/
3--2-2-2-3-3-3-3-------7-7-7-------/
4----------------------------------/

Influencias, sugerencias, europeos llevense su decadencia
1----------------------------------/
2----------------------------------/
3----------------------------------/
4--1-1-1--3-3-3--------5-5-5-5-5-5-/

Advertencia, vamos a declarar.
1----------------------------------/
2----------------------------------/
3----------------------------------/
4--1-1-1--3-3-3----4-4-4-4-4-------/


B) Coro:
  Independeeeeeeeeeeeencia cultural   
1--------------------------------------------/
2--------5-3-2--------------3-1-0------------/
3---3-3-3--------5-4--1-1-1---------3-1-3----/
4-------------3-3-----------------1----------/

A)
En este sitio lejano la gente es pobre
No hay orgullo de raza no hay colonias ni tradicion
Siempre ocultando el acento, no hemos sido aplaudidos ni un momento
En el colegio se enseña que cultura es 
Cualquier cosa rara menos lo que hagas tu.
No te disfraces, no te acomplejes
Eres precioso porque eres diferente
Grita fuerte, tenemos que declarar.

B. CORO:     Independencia cultural . . .

         
C:
Ya no quiero mas Bach, !puaj!, porque yo siento de un modo diferente.
1---------------------------------------------------------------/
2---------------------------------------------------------------/
3---3----------------------------1------------------------------/
4-----------------3----------------------------------1----------/
Si la cultura es Europa, la cultura es lo caro pues yo quisiera entenderme con la gente
1---------------------------------------------------------------/
2---------------------------------------------------------------/
3---3----------------------------1------------------------------/
4-----------------3----------------------------------1----------/

C: idem anterior
No quiero ver tu pelo pintado de verde.
Si la moda es Europa, si la moda es lo caro
Yo quisiera entenderme con la gente.

B. CORO:     Independencia cultural . . .
Este fichero es trabajo propio de su transcriptor y representa su interpretación personal de la canción. El material contenido en esta página es
para exclusivo uso privado, por lo que se prohibe su reproducción o retransmisión, así como su uso para fines comerciales.

© LaCuerda.net · Aviso Legal · Privacidad