Tablatura para Bajo de los Piojos: Pacífico
Conexión · Inscripción
Letras y Acordes
Pantalla Completa
Imprimir
Versión Texto
Añadir Favorito
Otras Versiones

Mostrar Diagramas
Desfile Automático
Formato del Texto


Pacífico(BAJ)

los Piojos

calidad:
pioj0975
AUTOR: Andres ciro Martinez
ALBUM: Civilización (2007)
Enviado por Sebastian
"Ahora que estoy vacio..."

G|-----------------------------------------------------------------|
D|-----------------------------------------------------------------|
A|-7-7-7-7-7-7-7-7-9-9-9-9-9-9-9-9-----------------7-7-7-7-7-7-7-7-|
E|---------------------------------5-5-5-5-5-5-5-5-----------------|


"Ahora que soy silbido..."

G|-----------------------------------------------------------------|
D|-----------------------------------------------------------------|
A|-7-7-7-7-7-7-7-7-9-9-9-9-9-9-9-9-----------------7-7-7-7-7-7-7-7-|
E|---------------------------------5-5-5-5-5-5-5-5-----------------|


"Todos esos deseos..."

G|-----------------------------------------------------------------|
D|-----------------------------------------------------------------|
A|-4-4-4-4-4-4-4-4---------------------------------7-7-7-7-7-7-7-7-|
E|-----------------4-4-4-4-4-4-4-4-5-5-5-5-5-5-5-5-----------------|


"El agua me salpica..."

G|-----------------------------------------------------------------|
D|-----------------------------------------------------------------|
A|-4-4-4-4-4-4-4-4---------------------------------7-7-7-7-7-7-7-7-|
E|-----------------4-4-4-4-4-4-4-4-5-5-5-5-5-5-5-5-----------------|


Solo de guitarra

G|-----------------------------------------------------------------|
D|---------------------------------7-7-7-7-7-7-7-7-----------------|
A|-7-7-7-7-7-7-7-7-9-9-9-9-9-9-9-9-----------------7-7-7-7-7-7-7-7-|
E|-----------------------------------------------------------------|


"Dejando que suceda..."

G|-----------------------------------------------------------------|
D|-----------------------------------------------------------------|
A|-7-7-7-7-7-7-7-7-9-9-9-9-9-9-9-9-----------------7-7-7-7-7-7-7-7-|
E|---------------------------------5-5-5-5-5-5-5-5-----------------|


"Distintas las miradas..."

G|-----------------------------------------------------------------|
D|-----------------------------------------------------------------|
A|-7-7-7-7-7-7-7-7-9-9-9-9-9-9-9-9-----------------7-7-7-7-7-7-7-7-|
E|---------------------------------5-5-5-5-5-5-5-5-----------------|


"La mente esta vacia..."

G|-----------------------------------------------------------------|
D|-----------------------------------------------------------------|
A|-4-4-4-4-4-4-4-4---------------------------------7-7-7-7-7-7-7-7-|
E|-----------------4-4-4-4-4-4-4-4-5-5-5-5-5-5-5-5-----------------|


"Voy a llevarte en mi..."

G|-----------------------------------------------------------------|
D|-----------------------------------------------------------------|
A|-4-4-4-4-4-4-4-4---------------------------------7-7-7-7-7-7-7-7-|
E|-----------------4-4-4-4-4-4-4-4-5-5-5-5-5-5-5-5-----------------|

G|-------------------------------------------------|
D|-------------------------------------------------|
A|-4-4-4-4-4-4-4-4---------------------------------|
E|-----------------4-4-4-4-4-4-4-4-5-5-5-5-5-5-5-5-|


Solo de guitarra

G|-----------------------------------------------------------------|
D|---------------------------------7-7-7-7-7-7-7-7-----------------|
A|-7-7-7-7-7-7-7-7-9-9-9-9-9-9-9-9-----------------7-7-7-7-7-7-7-7-|
E|-----------------------------------------------------------------|

G|-----------------------------------------------------------------|
D|-----------------------------------------------------------------|
A|-7-7-7-7-7-7-7-7-9-9-9-9-9-9-9-9-----------------7-7-7-7-7-7-7-7-|
E|---------------------------------5-5-5-5-5-5-5-5-----------------|


"Algo tiembla al oido..."

G|-----------------------------------------------------------------|
D|-----------------------------------------------------------------|
A|-4-4-4-4-4-4-4-4---------------------------------7-7-7-7-7-7-7-7-|
E|-----------------4-4-4-4-4-4-4-4-5-5-5-5-5-5-5-5-----------------|


"Voy a llevarte en mi..."

G|-----------------------------------------------------------------|
D|-----------------------------------------------------------------|
A|-4-4-4-4-4-4-4-4---------------------------------7-7-7-7-7-7-7-7-|
E|-----------------4-4-4-4-4-4-4-4-5-5-5-5-5-5-5-5-----------------|

G|-------------------------------------------------|
D|-------------------------------------------------|
A|-4-4-4-4-4-4-4-4---------------------------------|
E|-----------------4-4-4-4-4-4-4-4-5-5-5-5-5-5-5-5-|


Y hasta que termina el tema va repitiendo

G|-----------------------------------------------------------------|
D|-----------------------------------------------------------------|
A|-7-7-7-7-7-7-7-7-9-9-9-9-9-9-9-9-----------------7-7-7-7-7-7-7-7-|
E|---------------------------------5-5-5-5-5-5-5-5-----------------|

Es un poco largo, pero esta completo y bien detallado.
Cualquier duda manden un mail: seba_cae87@hotmail.com
Aguanten los piojos!
Este fichero es trabajo propio de su transcriptor y representa su interpretación personal de la canción. El material contenido en esta página es
para exclusivo uso privado, por lo que se prohibe su reproducción o retransmisión, así como su uso para fines comerciales.

© LaCuerda.net · Aviso Legal · Privacidad