Tablatura de Pibes Chorros: Sentimiento villero
Pibes Chorros  corregir
Las manos arriba [2001]
esta es la introduccion

1 |------3----------|----------|-------------------------------|
2 |--------3----3---|4-----4---|---3---4---3-------------------|
3 |----------3------|--3-------|---2---3---2-------------------|
4 |-----------------|----5-----|---4---5---4-------------------|
5 |-----------------|----------|-------------------------------|
6 |-----------------|----------|-------------------------------|

1 |------3----------|----------|-----------1---1-1--5--5-5s8---|
2 |--------3----3---|4-----4---|---3---3-3---------------------|
3 |----------3------|--3-------|------------------------------0|
4 |-----------------|----5-----|-------------------------------|
5 |-----------------|----------|-------------------------------|
6 |-----------------|----------|-------------------------------|



1 |--------3----------------------|------3---------------------|
2 |------3--3---1--------1--3s4-3-|----3---3---1-------1--3s4--|
3 |----0------3----2-2-2----------|--0-------3---2-2-2---------|
4 |-------------------------------|----------------------------|
5 |-------------------------------|----------------------------|
6 |-------------------------------|----------------------------|

1 |----6-6-6----5--------5-8-6-|----6-6-6----5--------5-8---|
2 |----------8----7-7-7--------|----------8----7-7-7--------|
3 |--7-------------------------|--7-------------------------|
4 |----------------------------|----------------------------|
5 |----------------------------|----------------------------|
6 |----------------------------|----------------------------|

1 |--6-10-6-------|
2 |---------10-8--|
3 |---------------|
4 |---------------|
5 |---------------|
6 |---------------|

despues de esto antes del coro va esto:

1 |-3-3-3---------| |-------3-2s3-|x2 solo esta parte
2 |-------3-6---4-| |-----3-------|
3 |-----------5---| |-0-3---------|
4 |---------------| |-------------|
5 |---------------| |-------------|
6 |---------------| |-------------|
                           ^
                           |
1 |------3-5-6-5-3---|  se repite lo mismo de arriva dos veces
2 |----3-----------3-|
3 |-0-3--------------|
4 |------------------|
5 |------------------|
6 |------------------|

1 |------3-4-5-3-2---|                   |---------------------------|
2 |-----3----------3-|                   |-3-4-3-1-3-4-3-1-3-4-3-1-3-|
3 |-0-3--------------| esto va un poco > |---------------------------|
4 |------------------| mas rapido        |---------------------------|
5 |------------------|                   |---------------------------|
6 |------------------|                   |---------------------------|

                             final >     |-10-11-10-8---------|
                                         |------------11-10-8-|
                                         |--------------------|
                                         |--------------------|
                                         |--------------------|
                                         |--------------------|
los acordes son:

Gm-D y en el coro:
Cm-Gm-D
Este fichero es trabajo propio de su transcriptor y representa su interpretación personal de la canción. El material contenido en esta página es
para exclusivo uso privado, por lo que se prohibe su reproducción o retransmisión, así como su uso para fines comerciales.
© LaCuerda.net · aviso legal · privacidad · es · en · pt · contacto