Letra y Acordes de Pereza: Qué alegría más tonta
Conexión · Inscripción
Letras y Acordes
Pantalla Completa
Imprimir
Versión Texto
Añadir Favorito
Otras Versiones

Mostrar Diagramas
Desfile Automático
Manipular Acordes
Formato del Texto


Qué alegría más tonta

Pereza

calidad:
pere0122
AUTOR: Leyva/rubén
ALBUM: Animales (2005)
Enviado por fernando, basado en Jk82
---------------------------------------------------------
---------------------------------------------------------
------------------0-0/2/0---------------------0-2--------
-3-3-3-0-3-5)-0-3---------3-0--3-3-3-0-3-5)-3-----3-0--0-
------------------------------------------------------3--
---------------------------------------------------------

---------------------------------------------------------
---------------------------------------------------------
------------------0-0/2/0--------------------------------
-3-3-3-0-3-5)-0-3---------3-0--3-3-3-0-3---5)----3-------
---------------------------------------------------------
---------------------------------------------------------

Los paréntesis es para que tiréis de la cuerda en esa nota
y la subais dos tonos (dejándola bajar luego a su posición).
Cuando pongo barras inclinadas es para que enlaceis las notas
con un solo golpe de cuerda. Id probando hasta q le pilleis el
punto.

F Que alegría más tonta
Dm Bb C estar... viendolas venir
F Que bonita tu boca
Dm Bb C que paz, que bien , vivir
Bb Que vivan los idiotas
C que nos hcen reir
A Dm que ridiculo es callarse cuando quieres decir
Bb F Que estás bien cuando todo va mal
Bb F Que solo me sale cantar
D# Mientras se matan ahí fuera
C y las cabezas vuelan...
F C Que alegría, que buen día
Dm Bb que bueno tenerte,
F C Dm Bb que bien estoy, quién me lo diría?
F C Dm Bb F C Dm Bb Cada día que sale el Sol salgo a verte (intro) Que alegría más tonta volar, sentado aquí Que me llamen pasota me la... suda, soy así Que vivan los que votan los que pasan de ir los que quieren y no pueden y nos quieren decir Que están bien cuando todo va mal Que solo les sale cantar Mientras se matan ahí fuera y las cabezas vuelan...
D# Que difícil ser lo más
Bb F que fácil ser elegante
D# Que manera de soñar
Bb C que fantasía, que arte
Este fichero es trabajo propio de su transcriptor y representa su interpretación personal de la canción. El material contenido en esta página es
para exclusivo uso privado, por lo que se prohibe su reproducción o retransmisión, así como su uso para fines comerciales.

© LaCuerda.net · Aviso Legal · Privacidad