Tablatura para Guitarra de Las Pelotas: Muchos Mitos
Conexión · Inscripción
Letras y Acordes
Pantalla Completa
Imprimir
Versión Texto
Añadir Favorito
Otras Versiones

Mostrar Diagramas
Desfile Automático
Manipular Acordes
Formato del Texto


Muchos Mitos(TAB)

Las Pelotas

calidad:
pelo0151
AUTOR: Las Pelotas  corregir
ALBUM: desconocido
Enviado por facundo
Intro: x2

E--------------------------------------|
B--------------------------------------|
G-------7----7-----9--9-------7--------|
D-9-9-----9-----9-------9-7-9---9-7----| x7
A-9-9----------------------------------|
E--------------------------------------|


E--------------------------------------|
B--------------------------------------|
G-------7----7-----9--9--7--9--11-9-11-|
D-9-9-----9-----9----------------------|
A-9-9----------------------------------|
E--------------------------------------|


INTRO en letra.
muchos mitos existen acá
muchas sombras te seguirán
alguien llama y no estas
en la tormenta te cubrirás

muchos mitos existen acá
muchas sombras te seguirán
alguien llama y no estas
en la tormenta te cubrirás

B5 G5 A5 B5 G5 A5 que ocurrirá... ese mismo día
B5 G5 A5 B5 G5 A5 con ese silencio... y piedras en mi ciudad que ocurrirá el mismo día con ese silencio y piedras en mi ciudad no, en mi ciudad no, no, en mi ciudad AGUANTEN LasPELOTAS!!!! Y SALUDOS A CORDOBA Y AL WAISMAN!!! FACU! Y FECHE!
Este fichero es trabajo propio de su transcriptor y representa su interpretación personal de la canción. El material contenido en esta página es
para exclusivo uso privado, por lo que se prohibe su reproducción o retransmisión, así como su uso para fines comerciales.


© LaCuerda.net · Aviso Legal · Privacidad