Tablatura para Guitarra de Pedro Tata Barahona: Hallándote
Conexión · Inscripción
Letras y Acordes
Pantalla Completa
Imprimir
Versión Texto
Añadir Favorito
Otras Versiones

Mostrar Diagramas
Desfile Automático
Manipular Acordes
Formato del Texto


Hallándote(TAB)

Pedro Tata Barahona

calidad:
ptbr0163
AUTOR: Tata Barahona
ALBUM: desconocido
Enviado por Christopher, basado en Guines
Intro

4/4

La primera estrofa va acompañada de la intro. El resto es rasgueado

E|------------|------------|----2----2------|-----------------|
B|----0----0--|----5----5--|----2----2----0-|--1p0---0--1p0---|
G|----2----2--|----4----4--|----2----2--2---|------2--------2-|
D|------------|------------|--0----0--------|--3--------------|
A|------------|--4----4----|----------------|-----------------|
E|--2----2----|------------|----------------|-----------------|

E|------------|------------|--2---2---2---|---2p0---0h2----|
B|----0----0--|----5----5--|--2---2---2---|-------2--------|
G|----2----2--|----4----4--|--2---2---2---|----------------|
D|------------|------------|--0---0---0---|----------------|
A|------------|--4----4----|--------------|----------------|
E|--2----2----|------------|--------------|----------------|

F* e O|-----|-----|----- b O|-----|-----|----- g |-----|--O--|----- d X|-----|-----|----- a X|-----|-----|----- e |-----|--O--|----- 1 2 3
F* C#m7 D Fmaj7 F* Hay un sol nutriendo los latidos de mi piel
C#m7 D Dmaj7 y en su voz, búscandome.
F* C#m7 D Fmaj7 F* Es su voz, latido que me daña hasta los pies
C#m7 D Dmaj7 y en su piel, hallándome.
A Fmaj7 G D A Uuuh , buscándome entre todos los cielos
G D F* Uuuh hallándome muy cerca de tiiii
C#m7 D Diriririn dirindi
F* C#m7 D Di dirindi dirin dirin diririndi
F* C#m7 D FAmaj7 F* En mi andar, me cubro con la sombra del jamás
C#m7 D Dmaj7 y en su voz, calmándome
F* C#m7 D Fmaj7 F* y su amor alcanza siempre para más y más
C#m7 D Dmaj7 este sol, tocándome.
A Fmaj7 G D A Oooh, calmándome en todos los sueños
G D Oooh, tocándome
A Fmaj7 G D A Uuuh, buscándote entre todos los cielos
G D A Uuuh, hallándote muy cerca de mí
Fmaj7 G D A Oooh, calmándome en todos los sueños
G D F* Oooh, tocándomeeee
C#m7 D Derereren derende
F* C#m7 D De derende deren deren dererende
F* C#m7 D Dera dera dera dararan daranda
F* C#m7 D F* Da daranda darararan daran daran daran daaa
C#m7 D daran darariraranda
F* C#m7 D F* - C#m7 - D - Fmaj7(pausa)- F* Darararanda darararan dararanda whuooo
Este fichero es trabajo propio de su transcriptor y representa su interpretación personal de la canción. El material contenido en esta página es
para exclusivo uso privado, por lo que se prohibe su reproducción o retransmisión, así como su uso para fines comerciales.
© LaCuerda.net · Aviso Legal · Privacidad