Tablatura para Guitarra de Las Pastillas del Abuelo: Dónde esconder tantas manos?
Conexión · Inscripción
Letras y Acordes
Pantalla Completa
Imprimir
Versión Texto
Añadir Favorito
Otras Versiones

Mostrar Diagramas
Desfile Automático
Manipular Acordes
Formato del Texto


Dónde esconder tantas manos?(TAB)

Las Pastillas del Abuelo

calidad:
pdab0942
AUTOR: Las Pastillas del Abuelo  corregir
ALBUM: Crisis.* (2008)
Enviado por Joaa
ACLARO: esta es la versión del disco "Crisis", no el de
 "Versiones" y lo subo como me
hubiese gustado que lo hayan subido cuando no lo había sacado :)
Creo yo que esta bastante bien, espero lo disfruten

Intro: riff's 1,2,3 y 4

las notas (6) son opcionaless

e|--6-------6------6-----6-------6--------6-------- /
B|----6-------6------(6)---6--------6-------(6)---- |
G|------8-------8------------8--------8------------ |  Riff 1
D|------------------------------------------------- |
A|------------------------------------------------- |
E|--8--------------------8------------------------- \


e|--6-------6------6-----6-------6--------6-------- /
B|----6-------6------(6)---6-------6--------(6)---- |
G|------8-------8------------8-------8------------- |  riff 2
D|------------------------------------------------- |
A|------------------------------------------------- |
E|--6--------------------6------------------------- \


e|--6-------6------6-----6-------6--------6-------- /
B|----6-------6------(6)---6-------6--------(6)---- |
G|------8-------8-------------8-------8------------ |  riff 3
D|--6--------------------6------------------------- |
A|------------------------------------------------- |
E|------------------------------------------------- \

e|--6-------6------6-----6-------6--------6-------- /
B|----6-------6-----(6)----6-------6--------(6)---- |
G|------8-------8------------8--------8------------ |  riff 4
D|------------------------------------------------- |
A|--6--------------------8------------------------- |
E|------------------------------------------------- \


          Riff 1
Que yo no soy, que es él, que yo actué bien y él no
             Riff 2
Ah, no, de acá yo no me muevo.
             Riff 3
Que por cuestión de piel, de sexo, religión
        Riff 4
tus zapatos no me los pruebo.


            Riff 1                             Riff2
¿A quién le vamos a tirar una pared cuando ya no nos quede nadie?
            Riff 3                                  Riff 4
Tal vez un perro fiel, a cambio de comer, soporte hasta lo insoportable
         Riff 1                                      Riff 2
Temiendo ser peor, temiendo ser mejor, temiendo, al fin, siempre temiendo
            Riff 3                                 Riff 4
Viviendo en el ayer, aletargando el hoy, sí Víctor sí, sobreviviendo

ESTRIBILLO:

   Cm(golpe)
e|--3-------------4-- /          e|--------------------------- /
B|--4--3h4--3-----4-- |          B|-----------4--------------- |
G|--5----------0--5-- |  Fill 1  G|-----3--5-----5--3----3h5-- |  Fill 2
D|--5-------------6-- |          D|--5-----------------5------ |
A|--3-------------6-- |          A|--------------------------- |
E|--3-------------4-- \         E|---------------------------- \

Cm - Fill 1 G# A# Juzgando al por mayor
Cm - Fill 1 G# A# D# A# Fm G#(golpe) Te alejás más y más del juicio que más importa
A#|Cm - Fill G# A# D# Que es el juicio interior que es el que hay que afrontar
A# Fm|G#(golpe) Fill 2 Siendo parte de esta torta Verso: Cm - A# - G# - D# - F Le atribuís el groove de un riff ciento por ciento a la paz de la nicotina, hipocondría maternal y paternal, hereditaria vitamina. Los placeres te acortan la correa, y vos que te pensás un indomable. ¿Qué gracia tiene andar por esta sociedad jactándose de responsable?
Cm - Fill 1 G# A# Si como un pulpo vas
Cm - Fill 1 G# A# D# A# Fm G#(golpe) Tirando piedras no hay dónde esconder tantas manos.
A#|Cm - Fill G# A# Es mejor asumir
Cm - Fill G# A# D# A# Fm|G#(golpe) Fill 3 La cobardía de huir a la responsabilidad de vivir E|----------6---------- / B|--8--6------8--6----- | G|--------8---------8-- | Fill 3 D|--------------------- | A|--------------------- | E|--------------------- \ SOLO DE SAXO SOBRE Cm - A# - G# - D# - F Verso: Cm - A# - G# - D# - F No importa cuánto me puedas alejar de la realidad, yo siempre vuelvo Psicología infernal, picante, dulce y sal Pero despierto y ya no cuelgo Pasado el tiempo al fin el espejo devuelve una imagen más familiar Hoy eligiendo a gusto y alternando, puede haber picante, dulce y sal Me bato a duelo con quien diga que voy bien porque hay rachas en esta vida Soy grande y qué, señor no vaya a confundir la soberbia con autoestima Que la soberbia mira desde más arriba y no llora penas ajenas En cambio, el autoestima se transmite y contagia a cualquier persona buena
Cm - Fill 1 G# A# Jusgando al por mayor
Cm - Fill 1 G# A# D# A# Fm G#(golpe) Te alejás más y más del juicio que más importa
A#|Cm - Fill G# A# D# Que es el juicio interior que es el que hay que afrontar
A# Fm G#(3 golpes) Cm(golpe) Siendo parte de esta torta
Cm - Fill 1 G# A# Si como un pulpo vas
Cm - Fill 1 G# A# D# A# Fm G#5 A#5 C#5 Tirando piedras no hay dónde esconder tantas manos.
Cm - Fill G# A# Es mejor asumir
Cm - Fill G# A# D# A# Fm|G#(golpe) Fill 2 La cobardía de huir a la responsabilidad de vivir SOLO DE GUITARRA SOBRE Cm - A# - G# - D# - F Fin PASTILLERO HASTA MORIR!
Este fichero es trabajo propio de su transcriptor y representa su interpretación personal de la canción. El material contenido en esta página es
para exclusivo uso privado, por lo que se prohibe su reproducción o retransmisión, así como su uso para fines comerciales.

© LaCuerda.net · Aviso Legal · Privacidad